All tabs: 1331485
We love you! Do you like us?
Bands » Zwan » Honestly » Guitar tab

Honestly by Zwan guitar tab

This is the final page that leads you directly to the Guitar Pro tab, drum tab, bass guitar tab, piano chord, etc you've chosen. This page provides information concerning Honestly guitar tab such as its format, type of tab or chord, upload date, number of views, number of downloads and rating of this tab provided by thetabsbest.com users.

If the tab you have selected is a downloadable one (mostly these are Zwan Guitar Pro tabs), you need to insert so called "captcha" code and click "download" button. In case the code is correct you will be redirected to download page where your Honestly gp4 file will be prepared. If you have entered wrong "captcha" code, you will be asked to insert it once again to get your Honestly guitar tab.

If you browse all Zwan tabs or open the list of tabs and chords for Honestly, you can see there are not only Guitar Pro tabs. Guitar tabs and chords, piano & power tabs, drum tabs, bass tabs - they all can be not only in Guitar Pro file format, but also in txt. In this case no special program is needed to read the tab. All you need to do it to open such Honestly tab and you will see it displayed. If you wish, you can download our free tabs in txt.

thetabsbest.com tries to expand tabs database, adding new and hot songs as well as old and beloved melodies, so our archive could suit any person. Also we try to add chords and files for different music instruments, for example, you can find Zwan acoustic guitar tabs, piano chords or power tabs. Many songs like Honestly have not only Honestly guitar tab type, but provide wide selection of chords and tabs for all instruments. We also try to add more Zwan Guitar Pro tabs as they can bear data for whole band including sheet music.

Our newest addition - Zwan lyrics - is viewed the same. Select "lyrics" in the list of the tabs and chords and the text will be displayed on the next page.

File info:


Share it:

Rate it:
Rating: 0
Band nameZwan »
Song nameHonestly »
Tab typeGuitar tab »
Added07/15/2008
Size13.28 Kb
File formattxt
Views/Loads2/0

Sponsored links:
Wrong code.

Text of tab

   
#----------------------------------PLEASE NOTE---------------------------------#
#This file is the author's own work and represents their interpretation of the #
#song. You may only use this file for private study, scholarship, or research. #
#------------------------------------------------------------------------------##


Gtr I (E A D G B E) - 'Untitled'
Gtr II (E A D G B E) - 'Untitled'


improvise over chords in d pentatonic   

 Q=92
   4/4
    Gtr I
    S S S S S S S S S S S S S S S S   S S S S S S S S S S S S S S S S  6x
||--0-0-0-0-0-0-0-0-0-0-0-0-0-0-0-0-|-0-0-0-0-0-0-0-0-0-0-0-0-0-0-0-0--||
||o-7-7-7-7-7-7-7-7-2-2-2-2-2-2-2-2-|-0-0-0-0-0-0-0-0-0-0-0-0-0-0-0-0-o||
||--7-7-7-7-7-7-7-7-2-2-2-2-2-2-2-2-|-0-0-0-0-0-0-0-0-0-0-0-0-0-0-0-0--||
||--x-x-x-x-x-x-x-x-x-x-x-x-x-x-x-x-|-x-x-x-x-x-x-x-x-0-0-0-0-0-0-0-0--||
||o-5-5-5-5-5-5-5-5-0-0-0-0-0-0-0-0-|-2-2-2-2-2-2-2-2-x-x-x-x-x-x-x-x-o||
||----------------------------------|-----------------3-3-3-3-3-3-3-3--||


    E E E E E E E E   E E E E E E E E   E E E E E E E E   E E E E E E E E
||------------------|-----------------|-----------------|-------------------||
||o-----------------|-----------------|-----------------|------------------o||
||--7-7-7-7---------|-----------------|-7-7-7-7---------|-------------------||
||--7-7-7-7-7-7-7-7-|-9-9-9-9-5-5-5-5-|-7-7-7-7-7-7-7-7-|-9-9-9-9-5-5-5-5---||
||o-5-5-5-5-7-7-7-7-|-9-9-9-9-5-5-5-5-|-5-5-5-5-7-7-7-7-|-9-9-9-9-5-5-5-5--o||
||----------5-5-5-5-|-7-7-7-7-3-3-3-3-|---------5-5-5-5-|-7-7-7-7-3-3-3-3---||


   E  E  E  E E E E E   H    H      H    H
|---------------------|-----------|-----------|
|---------------------|-----------|-----------|
|-12-12-12-12-9-9-9-9-|-7---------|-----------|
|-12-12-12-12-9-9-9-9-|-7----7----|-9----5----|
|-10-10-10-10-7-7-7-7-|-5----7----|-9----5----|
|---------------------|------5----|-7----3----|


    E E E E E E E E   E E E E E E E E   E E E E E E E E   E E E E E E E E   3x
||------------------|-----------------|-----------------|-------------------||
||o-----------------|-----------------|-----------------|------------------o||
||--7-7-7-7---------|-----------------|-7-7-7-7---------|-------------------||
||--7-7-7-7-7-7-7-7-|-9-9-9-9-5-5-5-5-|-7-7-7-7-7-7-7-7-|-9-9-9-9-5-5-5-5---||
||o-5-5-5-5-7-7-7-7-|-9-9-9-9-5-5-5-5-|-5-5-5-5-7-7-7-7-|-9-9-9-9-5-5-5-5--o||
||----------5-5-5-5-|-7-7-7-7-3-3-3-3-|---------5-5-5-5-|-7-7-7-7-3-3-3-3---||


                    .5/
                               PM-|
  E E E E E E E E   H.         S  E.
|-----------------|------------------|
|-----------------|------------------|
|-7-7-7-7---------|------------------|
|-7-7-7-7-7-7-7-7-|-9----------------|
|-5-5-5-5-7-7-7-7-|-9----------------|
|---------5-5-5-5-|-7----------x-x--|


    S S S S S S S S S S S S S S S S   S S S S S S S S S S S S S S S S   4x
||--0-0-0-0-0-0-0-0-0-0-0-0-0-0-0-0-|-0-0-0-0-0-0-0-0-0-0-0-0-0-0-0-0---||
||o-7-7-7-7-7-7-7-7-2-2-2-2-2-2-2-2-|-0-0-0-0-0-0-0-0-0-0-0-0-0-0-0-0--o||
||--7-7-7-7-7-7-7-7-2-2-2-2-2-2-2-2-|-0-0-0-0-0-0-0-0-0-0-0-0-0-0-0-0---||
||--x-x-x-x-x-x-x-x-x-x-x-x-x-x-x-x-|-x-x-x-x-x-x-x-x-0-0-0-0-0-0-0-0---||
||o-5-5-5-5-5-5-5-5-0-0-0-0-0-0-0-0-|-2-2-2-2-2-2-2-2-x-x-x-x-x-x-x-x--o||
||----------------------------------|-----------------3-3-3-3-3-3-3-3---||


    E E E E E E E E   E E E E E E E E   E E E E E E E E   E E E E E E E E
||------------------|-----------------|-----------------|-------------------||
||o-----------------|-----------------|-----------------|------------------o||
||--7-7-7-7---------|-----------------|-7-7-7-7---------|-------------------||
||--7-7-7-7-7-7-7-7-|-9-9-9-9-5-5-5-5-|-7-7-7-7-7-7-7-7-|-9-9-9-9-5-5-5-5---||
||o-5-5-5-5-7-7-7-7-|-9-9-9-9-5-5-5-5-|-5-5-5-5-7-7-7-7-|-9-9-9-9-5-5-5-5--o||
||----------5-5-5-5-|-7-7-7-7-3-3-3-3-|---------5-5-5-5-|-7-7-7-7-3-3-3-3---||


   E  E  E  E E E E E   H    H      H    H
|---------------------|-----------|-----------|
|---------------------|-----------|-----------|
|-12-12-12-12-9-9-9-9-|-7---------|-----------|
|-12-12-12-12-9-9-9-9-|-7----7----|-9----5----|
|-10-10-10-10-7-7-7-7-|-5----7----|-9----5----|
|---------------------|------5----|-7----3----|


    E E E E E E E E   E E E E E E E E   E E E E E E E E   E E E E E E E E   3x
||------------------|-----------------|-----------------|-------------------||
||o-----------------|-----------------|-----------------|------------------o||
||--7-7-7-7---------|-----------------|-7-7-7-7---------|-------------------||
||--7-7-7-7-7-7-7-7-|-9-9-9-9-5-5-5-5-|-7-7-7-7-7-7-7-7-|-9-9-9-9-5-5-5-5---||
||o-5-5-5-5-7-7-7-7-|-9-9-9-9-5-5-5-5-|-5-5-5-5-7-7-7-7-|-9-9-9-9-5-5-5-5--o||
||----------5-5-5-5-|-7-7-7-7-3-3-3-3-|---------5-5-5-5-|-7-7-7-7-3-3-3-3---||


                    .5/
                               PM-|
  E E E E E E E E   H.         S  E.
|-----------------|------------------|
|-----------------|------------------|
|-7-7-7-7---------|------------------|
|-7-7-7-7-7-7-7-7-|-9----------------|
|-5-5-5-5-7-7-7-7-|-9----------------|
|---------5-5-5-5-|-7----------x-x--|


  S S S S S S E S S S S S S E   S S S S S S E S S S S S S E
|-----------------------------|-----------------------------|
|-7---7---5-7---7---7---5-7---|-7---7---5-7---7---7---5-7---|
|---7---7-----7---7---7-----7-|---7---7-----7---7---7-----7-|
|-----------------------------|-----------------------------|
|-----------------------------|-----------------------------|
|-----------------------------|-----------------------------|


  S S S S S S S S S S S S S S S S   S S S S S S S S S S S S S S S S
|-0-0-0-0-0-0-0-0-0-0-0-0-0-0-0-0-|-0-0-0-0-0-0-0-0-0-0-0-0-0-0-0-0-|
|-7-7-7-7-7-7-7-7-2-2-2-2-2-2-2-2-|-0-0-0-0-0-0-0-0-0-0-0-0-0-0-0-0-|
|-7-7-7-7-7-7-7-7-2-2-2-2-2-2-2-2-|-0-0-0-0-0-0-0-0-0-0-0-0-0-0-0-0-|
|-x-x-x-x-x-x-x-x-x-x-x-x-x-x-x-x-|-x-x-x-x-x-x-x-x-0-0-0-0-0-0-0-0-|
|-5-5-5-5-5-5-5-5-0-0-0-0-0-0-0-0-|-2-2-2-2-2-2-2-2-x-x-x-x-x-x-x-x-|
|---------------------------------|-----------------3-3-3-3-3-3-3-3-|


     E     E E  E     E E E E    E     E E  E     E E E E
||----------------------------|---------------------------|
||o---------------------------|---------------------------|
||---7-----7-7--7-------------|---------------------------|
||---7-----7-7--7-----7-7-7-7-|--9-----9-9--9-----5-5-5-5-|
||o--5-----5-5--5-----7-7-7-7-|--9-----9-9--9-----5-5-5-5-|
||--------------------5-5-5-5-|--7-----7-7--7-----3-3-3-3-|
|
|   Gtr II
|    S  S  Q    S  S  H          S  S  Q    S  S  H
||----------------------------|---------------------------|
||o---------------------------|---------------------------|
||--12h14-14---12h14-14-------|-12h14-14---12h14-14-------|
||--12h14-14---12h14-14-------|-12h14-14---12h14-14-------|
||o---------------------------|---------------------------|
||----------------------------|---------------------------|


   E     E E  E     E E E E    E     E E  E     E E E E
|---------------------------|----------------------------||
|---------------------------|---------------------------o||
|--7-----7-7--7-------------|----------------------------||
|--7-----7-7--7-----7-7-7-7-|--9-----9-9--9-----5-5-5-5--||
|--5-----5-5--5-----7-7-7-7-|--9-----9-9--9-----5-5-5-5-o||
|-------------------5-5-5-5-|--7-----7-7--7-----3-3-3-3--||
|
|  S  S  Q    S  S  H          S  S  Q    S  S  H
|---------------------------|----------------------------||
|---------------------------|---------------------------o||
|-12h14-14---12h14-14-------|-12h14-14---12h14-14--------||
|-12h14-14---12h14-14-------|-12h14-14---12h14-14--------||
|---------------------------|---------------------------o||
|---------------------------|----------------------------||


   E E  E     E       E E   E   E        E  E     E     E    E   E      E   E
|------------------------------------|-------------------------------------------|
|------------------------------------|-------------------------------------------|
|--7-7--7-----7----------------------|-------------------------------------------|
|--7-7--7-----7-------7-7---7---7----|---9--9-----9-----9----5---5------5---5----|
|--5-5--5-----5-------7-7---7---7----|---9--9-----9-----9----5---5------5---5----|
|---------------------5-5---5---5----|---7--7-----7-----7----3---3------3---3----|
|
|  Q    S  S  S  Q        E   E    S    +E.    S  S  S  Q       +S   S  S S S  S
|------------------------------------|-------------------------------------------|
|------------------------------------|-------------------------------------------|
|------------------------------------|-------------------------------------------|
|-12---12-14p12-15b16-------------12-|-(12)---12-14p12---------------------------|
|------------------------------------|-----------------12b13---(12)-12-10-9-9h11-|
|-------------------------xs==x------|-------------------------------------------|


  E        E    E    E     E      E         E      E    E  E  E  E  E   E     E E
|----------------------------------------------------|------------------------------|
|----------------------------------------------------|------------------------------|
|-7--------7----7----7-------------------------------|------------------------------|
|-7--------7----7----7-----7------7---------7------7-|--9--9--9--9--5---5-----5-5---|
|-5--------5----5----5-----7------7---------7------7-|--9--9--9--9--5---5-----5-5---|
|--------------------------5------5---------5------5-|--7--7--7--7--3---3-----3-3---|
|
| T  T  S  S  E    E    S  S  a S T T  T  T T T  S E    E  E  E  E  E  +Q.
|----------------------------------------------------|------------------------------|
|------------13--------------11s3--------------------|-12--------------------------|
|------11--------------11-12------9-9-11-11-9-9-11p9-|-----9-10s11-11-(11)b17-------|
|-0h12----12------12---------------------------------|------------------------------|
|----------------------------------------------------|------------------------------|
|----------------------------------------------------|------------------------------|


  E  E  E  E       E E  E E    E  E  E     E  E     E  E     E
|---------------------------|----------------------------------|
|---------------------------|----------------------------------|
|-7--7--7--7----------------|----------------------------------|
|-7--7--7--7-------7-7--7-7-|--9--9--9-----9--5-----5--5-----5-|
|-5--5--5--5-------7-7--7-7-|--9--9--9-----9--5-----5--5-----5-|
|------------------5-5--5-5-|--7--7--7-----7--3-----3--3-----3-|
|
| E  E  E  S  E.     Q    E   +E  E  S  E.    S  E.    S  E.
|---17s15-14-17b18---x-----|----------------------------------|
|--------------------x---x-|-(x)---15-------14-------13-------|
|-------------------------x-|-(x)------12-------11-------10----|
|---------------------------|----------------------------------|
|---------------------------|----------------------------------|
|---------------------------|----------------------------------|


    E E E E E E E E   E E E E E E E E   E E E E E E E E   E E E E E E E E
||------------------|-----------------|-----------------|-------------------||
||o-----------------|-----------------|-----------------|------------------o||
||--7-7-7-7---------|-----------------|-7-7-7-7---------|-------------------||
||--7-7-7-7-7-7-7-7-|-9-9-9-9-5-5-5-5-|-7-7-7-7-7-7-7-7-|-9-9-9-9-5-5-5-5---||
||o-5-5-5-5-7-7-7-7-|-9-9-9-9-5-5-5-5-|-5-5-5-5-7-7-7-7-|-9-9-9-9-5-5-5-5--o||
||----------5-5-5-5-|-7-7-7-7-3-3-3-3-|---------5-5-5-5-|-7-7-7-7-3-3-3-3---||


  W          +W
|----------|--------*|
|----------|--------*|
|-7--------|-(7)----*|
|-7--------|-(7)----*|
|-5--------|-(5)----*|
|----------|--------*|

not perfect, but i hope it helps
-silvrcrank


Duration Legend
---------------
W - whole; H - half; Q - quarter; E - 8th; S - 16th; T - 32nd; X - 64th; a - acciaccatura
+ - note tied to previous; . - note dotted; .. - note double dotted
Uncapitalized letters represent notes that are staccato (1/2 duration)
Irregular groupings are notated above the duration line
Duration letters will always appear directly above the note/fret number it represents the
duration for.  Duration letters with no fret number below them represent rests.  Multi-
bar rests are notated in the form Wxn, where n is the number of bars to rest for.  Low
melody durations appear below the staff

Tablature Legend
----------------
 h   - hammer-on
 p   - pull-off
 b   - bend
 pb  - pre-bend
 r   - bend release (if no number after the r, then release immediately)
 /  - slide into or out of (from/to "nowhere")
 s   - legato slide
 S   - shift slide
  - natural harmonic
[n]  - artificial harmonic
n(n) - tapped harmonic
 ~   - vibrato
 tr  - trill
 T   - tap
 TP  - trem. picking
 PM  - palm muting

/  - tremolo bar dip; n = amount to dip
 
  - tremolo bar down
 n/  - tremolo bar up
/n  - tremolo bar inverted dip
 =   - hold bend; also acts as connecting device for hammers/pulls
 <>  - volume swell (louder/softer)
 x   - on rhythm slash represents muted slash
 o   - on rhythm slash represents single note slash

Misc Legend
-----------
 |  - bar
||  - double bar
||o - repeat start
o|| - repeat end
*|  - double bar (ending)
 :  - bar (freetime)
 $  - Segno
 &  - Coda
Tempo markers -  = BPM(8/16=s8/s16), where s8 = swing 8ths, s16 = swing 16ths

Visit www.directTABS.com for more free tablature!


Add comment: