All tabs: 1331485
We love you! Do you like us?
Bands » Zsk » Dare To Revolt » Bass tab

Dare To Revolt by Zsk bass tab

This is the final page that leads you directly to the Guitar Pro tab, drum tab, bass guitar tab, piano chord, etc you've chosen. This page provides information concerning Dare To Revolt bass tab such as its format, type of tab or chord, upload date, number of views, number of downloads and rating of this tab provided by thetabsbest.com users.

If the tab you have selected is a downloadable one (mostly these are Zsk Guitar Pro tabs), you need to insert so called "captcha" code and click "download" button. In case the code is correct you will be redirected to download page where your Dare To Revolt gp4 file will be prepared. If you have entered wrong "captcha" code, you will be asked to insert it once again to get your Dare To Revolt bass tab.

If you browse all Zsk tabs or open the list of tabs and chords for Dare To Revolt, you can see there are not only Guitar Pro tabs. Guitar tabs and chords, piano & power tabs, drum tabs, bass tabs - they all can be not only in Guitar Pro file format, but also in txt. In this case no special program is needed to read the tab. All you need to do it to open such Dare To Revolt tab and you will see it displayed. If you wish, you can download our free tabs in txt.

thetabsbest.com tries to expand tabs database, adding new and hot songs as well as old and beloved melodies, so our archive could suit any person. Also we try to add chords and files for different music instruments, for example, you can find Zsk acoustic guitar tabs, piano chords or power tabs. Many songs like Dare To Revolt have not only Dare To Revolt bass tab type, but provide wide selection of chords and tabs for all instruments. We also try to add more Zsk Guitar Pro tabs as they can bear data for whole band including sheet music.

Our newest addition - Zsk lyrics - is viewed the same. Select "lyrics" in the list of the tabs and chords and the text will be displayed on the next page.

File info:


Share it:

Rate it:
Rating: 0
Band nameZsk »
Song nameDare To Revolt »
Tab typeBass tab »
Added07/15/2008
Size2.18 Kb
File formattxt
Views/Loads1/0

Sponsored links:
Wrong code.

Text of tab

   
Song : Dare To Revolt
Artist : ZSK
Album : Riot Radio
Tabbed by : Lucky (Lucky.Bassiste@wanadoo.fr)

Turn Your E-String into a D

G:---------------------------------------------------------------------
D:---------------------------------------------------------------------
A:---------------------------------------------------------------------
D:-----------------8--8--8-5--5--5-0---------------8--8--8--10--10--10-

G:---------------------------------|X2
D:---------------------------------|X2
A:-------------------------3-3-3-3-|X2
D:-0-0-0-0-8-8-8-8-5-5-5-5---------|X2

G:---------------------------------|X2
D:-----------------0---0-----------|X2
A:-----------------------3-0---0---|X2
D:-0-0-0-0-0-0-0-0---------------3-|X2

G:---------------------------------
D:---------------------------------
A:---------------------------------
D:-0-0-0-0-0-0-0-0-0-0-0-0-0-0-0-0-

G:---------------------------------|X3
D:---------------------------------|X3
A:---------------------------------|X3
D:-0-0-----8-8-----5-5-----5---3---|X3

G:-----------------------------------------------------------------
D:-----------------------------------------------------------------
A:-------------------------3-3-3-3-5-5-5-5-----------------3-3-3-3-
D:-0-0-0-0-8-8-8-8-5-5-5-5-----------------8-8-8-8-5-5-5-5---------

G:---------------------------------
D:---------------------------------
A:-------------------------3-------
D:-0-0-0-0-8-8-8-8-5-5-5-5---------

G:-------------------------------------------
D:-------------------------------------------
A:-------------------------3-3-3-3-5-5-5-3-5-
D:-0-0-0-0-8-8-8-8-5-5-5-5-------------------


Add comment: