All tabs: 1331485
We love you! Do you like us?
Bands » Zouk Machine » Maldon » Bass tab

Maldon by Zouk Machine bass tab

This is the final page that leads you directly to the Guitar Pro tab, drum tab, bass guitar tab, piano chord, etc you've chosen. This page provides information concerning Maldon bass tab such as its format, type of tab or chord, upload date, number of views, number of downloads and rating of this tab provided by thetabsbest.com users.

If the tab you have selected is a downloadable one (mostly these are Zouk Machine Guitar Pro tabs), you need to insert so called "captcha" code and click "download" button. In case the code is correct you will be redirected to download page where your Maldon gp4 file will be prepared. If you have entered wrong "captcha" code, you will be asked to insert it once again to get your Maldon bass tab.

If you browse all Zouk Machine tabs or open the list of tabs and chords for Maldon, you can see there are not only Guitar Pro tabs. Guitar tabs and chords, piano & power tabs, drum tabs, bass tabs - they all can be not only in Guitar Pro file format, but also in txt. In this case no special program is needed to read the tab. All you need to do it to open such Maldon tab and you will see it displayed. If you wish, you can download our free tabs in txt.

thetabsbest.com tries to expand tabs database, adding new and hot songs as well as old and beloved melodies, so our archive could suit any person. Also we try to add chords and files for different music instruments, for example, you can find Zouk Machine acoustic guitar tabs, piano chords or power tabs. Many songs like Maldon have not only Maldon bass tab type, but provide wide selection of chords and tabs for all instruments. We also try to add more Zouk Machine Guitar Pro tabs as they can bear data for whole band including sheet music.

Our newest addition - Zouk Machine lyrics - is viewed the same. Select "lyrics" in the list of the tabs and chords and the text will be displayed on the next page.

File info:


Share it:

Rate it:
Rating: 0
Band nameZouk Machine »
Song nameMaldon »
Tab typeBass tab »
Added07/15/2008
Size6.9 Kb
File formattxt
Views/Loads1/9

Sponsored links:
Wrong code.

Text of tab

   
-------------------------------------------------------------------------------
			     Maldon – Zouk Machine
-------------------------------------------------------------------------------

official website : http://www.zoukmachine.com/

Tabbed By : peyo
e-mail: peyo@hotmail.fr

Tuning: standard

Verse
« Ka sa yé misyé bobo…
G|---------------------------------------------------------------------------------------------------------|
D|---------------------------------------------------------------------------------------------------------|
A|-------------------------------------------1------------------5---5---5--------5--------------5-------3--|
E|---1----1-1----1---1--------3--3--3------3---3--3----------------------6------6--6---6-------6-----------|

G|---------------------------------------------------------------------------------------------------------|
D|---------------------------------------------------------------------------------------------------------|
A|-------------------------------------------1------------------5---5---5--------5--------------5-------3--|
E|---1----1-1----1---1--------3--3--3------3---3--3----------------------6------6--6---6-------6-----------|

Pré-Chorus 1
« Nétwayé, baléyé, astiké…
G|---------------------------------------------------------------------------------------------------------------------------------|
D|-----------------------------------5-----------3---5------------3-------------------------------------7----------5--7---------5--|
A|---5---------3---5----------3--------5--5------------5---5--------8----------6---8---------6---------7--7----------7--7----------|
E|--------5--5----------5--5------------------------------------------------8--8----------8—8--------------------------------------|

G|---------------------------------------------------------------------------------------------------------------------------------|
D|-----------------------------------5-----------3---5------------3-------------------------------------7----------5--7---------5--|
A|---5---------3---5----------3--------5--5------------5---5--------8----------6---8---------6---------7--7----------7--7----------|
E|--------5--5----------5--5------------------------------------------------8--8----------8—8--------------------------------------|

Pré-Chorus 2
« Nétwayé, baléyé, astiké…
G|---------------------------------------------------------------------------------------------------------------------------------|
D|-----------------------------------5-----------3---5------------3-------------------------------------7----------5--7---------5--|
A|---5---------3---5----------3--------5--5------------5---5--------8----------6---8---------6---------7--7----------7--7----------|
E|--------5--5----------5--5------------------------------------------------8--8----------8—8--------------------------------------|

G|----------------------------------------------------------------------------------------------|
D|-----------------------------------5-----------3---5------------3-----------------------------|
A|---5---------3---5----------3--------5--5------------5---5--------8----------6---8---------6--|
E|--------5--5----------5--5------------------------------------------------8--8----------8—8---|

G|---------------------------------------------------------------------------------------|
D|---7------7----------7---7--7-7-------7---7--7-7--------7-7-7---7/---------------------|
A|------------------------------------------------------------------------------------5--|
E|---------------------------------------------------------------------------------------|

Chorus
« Pa mé lé mwen kon saké ni maldon Ha….
G|-----7-7---------------------------------------------------5-5-5------------------|
D|-----------7-7------------------------------------------------------5-5-----------|
A|-----------------8----5-----5---3----------1--3-------------------------6---3--3--|
E|--------------------------------------3--3----------3-3---------------------------|

G|----------------------------------------------------------------------------------------------------------------|
D|-----------------8------------8-----5--------3---5--------3----------------------------------------7---7/-------|
A|-----------------------------------------5-5----------5-5-------8-------6--8--------6---7--7-----------------5--|
E|------6---6-6------6--6-6-----------------------------------------8-8--------8-8--------------------------------|

G|-----7-7---------------------------------------------------5-5-5------------------|
D|-----------7-7------------------------------------------------------5-5-----------|
A|-----------------8----5-----5---3----------1--3-------------------------6---3--3--|
E|--------------------------------------3--3----------3-3---------------------------|

G|----------------------------------------------------------------------------------------------------------|
D|-----------------8------------8-----5--------3---5--------3-----------------------------------------p-7/--|
A|-----------------------------------------5-5----------5-5-------8-------6--8--------6---7--7--------------|
E|------6---6-6------6--6-6-----------------------------------------8-8--------8-8--------------------------|

Bridge 1
« Ya ya ya ya yé   Ya ya ya ya yé.... (slow)
G|-------------------------------------------------------------------------------|
D|-------------------------------------------------------------------------------|
A|-----5--5--5--5------3--3--3--3-----5--5--5--5-----3--3--3--3------------------|
E|--------------------5----------------3----------------5----------------3-------|

G|-------------------------------------------------------------------------------|
D|-------------------------------------------------------------------------------|
A|-----5--5--5--5------3--3--3--3-----5--5--5--5-----3--3--3--3------------------|
E|--------------------5----------------3----------------5----------------3-------|

Bridge 2 / Outro
« Ya ya ya ya yé   Ya ya ya ya yé.... (faster)
G|-----------------------------------------------------------------------------------------------------------|
D|----------------3----3--5------------------------------------------3----3--5-------------------------------|
A|-----5--5--5-----5----------1--1--1------1-----------5--5--5-----5----------1--1--1------1-----------------|
E|------------------------------------------1------1--3-----------------------------------------1------1--3--|

G|-----------------------------------------------------------------------------------------------------------|
D|----------------3----3--5------------------------------------------3----3--5-------------------------------|
A|-----5--5--5-----5----------1--1--1------1-----------5--5--5-----5----------1--1--1------1-----------------|
E|------------------------------------------1------1--3-----------------------------------------1------1--3--|


Verse
Prechorus 1
Verse
Prechorus 2
Chorus
Verse
Prechorus 2
Chorus
Bridge 1
Bridge 2
Chorus
Outro (ad lib)


Add comment: