All tabs: 1331485
We love you! Do you like us?
Bands » Yellowcard » Takedown » Guitar tab

Takedown by Yellowcard guitar tab

This is the final page that leads you directly to the Guitar Pro tab, drum tab, bass guitar tab, piano chord, etc you've chosen. This page provides information concerning Takedown guitar tab such as its format, type of tab or chord, upload date, number of views, number of downloads and rating of this tab provided by thetabsbest.com users.

If the tab you have selected is a downloadable one (mostly these are Yellowcard Guitar Pro tabs), you need to insert so called "captcha" code and click "download" button. In case the code is correct you will be redirected to download page where your Takedown gp4 file will be prepared. If you have entered wrong "captcha" code, you will be asked to insert it once again to get your Takedown guitar tab.

If you browse all Yellowcard tabs or open the list of tabs and chords for Takedown, you can see there are not only Guitar Pro tabs. Guitar tabs and chords, piano & power tabs, drum tabs, bass tabs - they all can be not only in Guitar Pro file format, but also in txt. In this case no special program is needed to read the tab. All you need to do it to open such Takedown tab and you will see it displayed. If you wish, you can download our free tabs in txt.

thetabsbest.com tries to expand tabs database, adding new and hot songs as well as old and beloved melodies, so our archive could suit any person. Also we try to add chords and files for different music instruments, for example, you can find Yellowcard acoustic guitar tabs, piano chords or power tabs. Many songs like Takedown have not only Takedown guitar tab type, but provide wide selection of chords and tabs for all instruments. We also try to add more Yellowcard Guitar Pro tabs as they can bear data for whole band including sheet music.

Our newest addition - Yellowcard lyrics - is viewed the same. Select "lyrics" in the list of the tabs and chords and the text will be displayed on the next page.

File info:


Share it:

Rate it:
Rating: 0
Band nameYellowcard »
Song nameTakedown »
Tab typeGuitar tab »
Added07/14/2008
Size6.51 Kb
File formattxt
Views/Loads1/3

Sponsored links:
Wrong code.

Text of tab

   
By-Francis
Location - Carmelite, Lucena City
Cp #- 09109712432 
E-add- f_sario@yahoo.com  (friendster)add me!


  I'm not yet finish working on this tab ..I'm still tabbing  the
 violin tab(chorus and solo )...

  Tuning-Guitar 1 & 2 e b g d A D
        
Intro-
1.
Guitar1
|---------------------------------------------------------|
|---------------------------------------------------------|
|-------------------------------7~---~~~~~~~~~------------|
|-------------------------------7~---Rocket-fx------------|
|-----5^---5^-------5^---5^-----5~---~~~~~~~~~------------|
|-4-4----4----4-5-5----5----5-----------------------------|
  Guitar2
|-------------------------------------------|
|-------------------------------------------|
|-------------------------------------------|
|------------------------------0~-----------|
|------------------------------0~-Rocket-fx-|
|------------------------------0~-----------|
  
2.
  Guitar1
|------------------------------------------------------------|
|------------------------------------------------------------|
|------------------------------------------------------------|
|------------------------------------------------------------|2x
|-----5^---5^-------5^---5^--------5^---------4^---4^--------|
|-4-4----4----4-5-5----5----5--0-0---0--0-0-0----0-----------|
  Guitar2
|------------------------------------------------------------------|
|------------------------------------------------------------------|
|------------------------------------------------------------------|
|-4-4--4--4-4---4-5-5--5--5--5--5--7-7-7-7-7-7-7-7--7--------------|2x
|-4-4--4--4-4---4-5-5--5--5--5--5--5-5-5-5-5-5-5-5--5--------------|
|-4-4--4--4-4---4-5-5--5--5--5--5--0-0-0-0-0-0-0-0--0--------------|
  3.
Guitar1
|--------------------------------------------------------------|
|--------------------------------------------------------------|
|--------------------------------------------------------------|
|------4^---4^---4^------4^--4----------4^--4^---------2^---2^-|
|-5^-5^---5----5-----------------------------------------------|
|------------------5^-5^----5---5--0--0---0-----0--0--0---0----|
  Guitar2
|----------------------------------------------------------------|
|----------------------------------------------------------------|
|----------------------------------------------------------------|
|-4-4--4--4-4---4-5-5--5--5--5--5--7-7-7-7-7-7-7-7--7------------|
|-4-4--4--4-4---4-5-5--5--5--5--5--5-5-5-5-5-5-5-5--5------------|
|-4-4--4--4-4---4-5-5--5--5--5--5--0-0-0-0-0-0-0-0--0------------|
  
4.
  Guitar1
|--------------------------------------|
|--------------------------------------|
|-----------------------------------7~-|
|------4^---4^---4^------4^--4------7~-|
|-5^-5^---5----5--------------------5~-|
|------------------5^-5^----5---5------|
  Guitar2
|-----------------------------------------------|
|-----------------------------------------------|
|-----------------------------------------------|
|-4-4--4--4-4---4-5-5--5--5--5--5---7~----------|
|-4-4--4--4-4---4-5-5--5--5--5--5---5~----------|
|-4-4--4--4-4---4-5-5--5--5--5--5---0~----------|
  
Verse-F#m G D 3x F#m G
  I feel things changing when I move
(Its a distance, Its a difference)
I'll cross this planet without you
(and you might call this a downfall)
Its one long night that I'm passing through
(Its a dark one what have I done)
Its one long night...
  
Chorus-F#m G D 3x 
Don't turn your back on me now
You can't do this 
Don't say you can live without
You can't do this alone
How did I end up like this, the lonely one,
Your greatest take down?
  F#m         G
You take me down
  
Verse-F#m G D 3x F#m G
  Left last night with a long goodbye
(We cement why, through a phone line)
I told you thoughts that multiply
(That I don't know how to let go)
We've been here many times before
(I am empty, when you leave me)
What's one more?
  
Chorus-F#m G D 3x F#m G
Don't turn your back on me now
You can't do this 
Don't say you can live without
You can do this alone
How did I end up like this, the broken one,
Your greatest take down?
You take me down
  solo-
  Guitar1@2
|-----------------------------------------------------------------|
|-----------------------------------------------------------------|
|-4---------------4-----------------------------------------------|
|-4--4---5---0----4---4---5---0---2---4---5---7-------------------|
|-2--4---5---0----2---4---5---0---2---4---5---7-------------------|
|----4---5---0--------4---5---0---2---4---5---7-------------------|
  
|-----two times---------------|

  |-----------------------------|-------------------------------------------|
|-----------------------------|-------------------------------------------|
|-444444----------------------|-------------------------------------------|
|-444444-444444-55555--000000-|-00000000-22222222-44444444-5555555--7~----|
|-222222-444444-55555--000000-|-00000000-22222222-44444444-5555555--5~----|
|--------444444-55555--000000-|-00000000-22222222-44444444-5555555--0~----|
  F#m
I won't get by 
I won't heal in time
I won't get by
  Repeat Chorus-
  You take me down
  
OUTRO-
  Guitar1
|--------------------------------------------------------------|
|--------------------------------------------------------------|
|--------------------------------------------------------------|
|------4^---4^---4^------4^--4----------4^--4^---------2^---2^-|
|-5^-5^---5----5-----------------------------------------------|
|------------------5^-5^----5---5--0--0---0-----0--0--0---0----|
  Guitar2
|----------------------------------------------------------------|
|----------------------------------------------------------------|
|----------------------------------------------------------------|
|-4-4--4--4-4---4-5-5--5--5--5--5--7-7-7-7-7-7-7-7--7------------|
|-4-4--4--4-4---4-5-5--5--5--5--5--5-5-5-5-5-5-5-5--5------------|
|-4-4--4--4-4---4-5-5--5--5--5--5--0-0-0-0-0-0-0-0--0------------|
   
  
Guitar1
|--------------------------------------|
|--------------------------------------|
|-----------------------------------7~-|
|------4^---4^---4^------4^--4------7~-|
|-5^-5^---5----5--------------------5~-|
|------------------5^-5^----5---5------|
  Guitar2
|-----------------------------------------------|
|-----------------------------------------------|
|-----------------------------------------------|
|-4-4--4--4-4---4-5-5--5--5--5--5---7~----------|
|-4-4--4--4-4---4-5-5--5--5--5--5---5~----------|
|-4-4--4--4-4---4-5-5--5--5--5--5---0~----------|


Add comment: