All tabs: 1331485
We love you! Do you like us?
Bands » Yellowcard » Takedown » Guitar tab

Takedown by Yellowcard guitar tab

This is the final page that leads you directly to the Guitar Pro tab, drum tab, bass guitar tab, piano chord, etc you've chosen. This page provides information concerning Takedown guitar tab such as its format, type of tab or chord, upload date, number of views, number of downloads and rating of this tab provided by thetabsbest.com users.

If the tab you have selected is a downloadable one (mostly these are Yellowcard Guitar Pro tabs), you need to insert so called "captcha" code and click "download" button. In case the code is correct you will be redirected to download page where your Takedown gp4 file will be prepared. If you have entered wrong "captcha" code, you will be asked to insert it once again to get your Takedown guitar tab.

If you browse all Yellowcard tabs or open the list of tabs and chords for Takedown, you can see there are not only Guitar Pro tabs. Guitar tabs and chords, piano & power tabs, drum tabs, bass tabs - they all can be not only in Guitar Pro file format, but also in txt. In this case no special program is needed to read the tab. All you need to do it to open such Takedown tab and you will see it displayed. If you wish, you can download our free tabs in txt.

thetabsbest.com tries to expand tabs database, adding new and hot songs as well as old and beloved melodies, so our archive could suit any person. Also we try to add chords and files for different music instruments, for example, you can find Yellowcard acoustic guitar tabs, piano chords or power tabs. Many songs like Takedown have not only Takedown guitar tab type, but provide wide selection of chords and tabs for all instruments. We also try to add more Yellowcard Guitar Pro tabs as they can bear data for whole band including sheet music.

Our newest addition - Yellowcard lyrics - is viewed the same. Select "lyrics" in the list of the tabs and chords and the text will be displayed on the next page.

File info:


Share it:

Rate it:
Rating: 0
Band nameYellowcard »
Song nameTakedown »
Tab typeGuitar tab »
Added07/14/2008
Size2.74 Kb
File formattxt
Views/Loads1/1

Sponsored links:
Wrong code.

Text of tab

   
...my first tab ever

Song: The Takedown
Artist: Yellowcard
Album: Paper Walls


h-hammer on
p-pull off
t-tap
b-bend


this solo starts around 2:22
E|----------------------------16-----------------------|
B|-13h14p13-----------------14--14---------------------|
G|---------13---10-11-13----------13-11-10-------------|
D|----------------------13-----------------------------|
A|-----------------------------------------11-9-8------|
E|------------------------------------------------11-9-|


this part is around 2:28.
i don't know if this is the right way to play it.. so i'm giving two versions
this u obviously play very fast...
E|---------------------|--------------------------|
B|---------------------|--------------------------|
G|---------------------|--------------------------|
D|-11-10--10-11-10-----|-11-10--10-13-10--10-b/13-|
A|------11-----------x2|------11--------11--------|
E|---------------------|--------------------------|

(this version uses the tapping method... which i can't do for my life)
[http://www.webguitartabs.com/lessons/guitar_techniques/tapping.html]
E|------------------------|---------------------------------|
B|------------------------|---------------------------------|
G|------------------------|---------------------------------|
D|-t11-10p6-h10-t11-10----|-t11-10p6-h10-t13-10p6-h10-b13---|
A|----------------------x2|---------------------------------|
E|------------------------|---------------------------------|


2:31 ...don't know the method for doing next parts
E|-------16-----16-----------------------------------------|
B|-14--14--16-14--16-14-13-14-13---------------------------|
G|------------------------------13-11-13-11-10--10---13----|
D|--------------------------------------------11-------13--|
A|---------------------------------------------------------|
E|---------------------------------------------------------|

2:35
E|---------------------------------------------------------|
B|-----------------------------------------------------9---|
G|--------------------5-6-----------------------8-10-11----|
D|-----------------6-8-----------8-10-11-8-10-11-----------|
A|------6-8-9-6-8-9--------8-9-11--------------------------|
E|-6-8-9---------------------------------------------------|

2:38?
E|-----------------------------------------------|
B|------------------------------11-13--11-13-14--|
G|---------10-11-13-10-11-13-13------13----------|
D|-10-11-13--------------------------------------|
A|-----------------------------------------------|
E|-----------------------------------------------|

2:39/40ish... Iím not too sure bout this part
E|-11-13-11---------|--------|
B|---------14-13-14-|-13--14-|
G|------------------|---13---|
D|----------------x2|--------|
A|------------------|--------|
E|------------------|--------|

Good luck


Add comment: