All tabs: 1331485
We love you! Do you like us?
Bands » Yellowcard » On The Brink » Guitar tab

On The Brink by Yellowcard guitar tab

This is the final page that leads you directly to the Guitar Pro tab, drum tab, bass guitar tab, piano chord, etc you've chosen. This page provides information concerning On The Brink guitar tab such as its format, type of tab or chord, upload date, number of views, number of downloads and rating of this tab provided by thetabsbest.com users.

If the tab you have selected is a downloadable one (mostly these are Yellowcard Guitar Pro tabs), you need to insert so called "captcha" code and click "download" button. In case the code is correct you will be redirected to download page where your On The Brink gp4 file will be prepared. If you have entered wrong "captcha" code, you will be asked to insert it once again to get your On The Brink guitar tab.

If you browse all Yellowcard tabs or open the list of tabs and chords for On The Brink, you can see there are not only Guitar Pro tabs. Guitar tabs and chords, piano & power tabs, drum tabs, bass tabs - they all can be not only in Guitar Pro file format, but also in txt. In this case no special program is needed to read the tab. All you need to do it to open such On The Brink tab and you will see it displayed. If you wish, you can download our free tabs in txt.

thetabsbest.com tries to expand tabs database, adding new and hot songs as well as old and beloved melodies, so our archive could suit any person. Also we try to add chords and files for different music instruments, for example, you can find Yellowcard acoustic guitar tabs, piano chords or power tabs. Many songs like On The Brink have not only On The Brink guitar tab type, but provide wide selection of chords and tabs for all instruments. We also try to add more Yellowcard Guitar Pro tabs as they can bear data for whole band including sheet music.

Our newest addition - Yellowcard lyrics - is viewed the same. Select "lyrics" in the list of the tabs and chords and the text will be displayed on the next page.

File info:


Share it:

Rate it:
Rating: 0
Band nameYellowcard »
Song nameOn The Brink »
Tab typeGuitar tab »
Added07/14/2008
Size2.08 Kb
File formattxt
Views/Loads1/2

Sponsored links:
Wrong code.

Text of tab

   
Yellowcard - on the brink (guitar tabs)
Tabbed by James Guest (wickerman21@hotmail.com)
Work out the rhythms by listening to the song cos I canít be assed to work it out myself.
Guitar tuning Ė standard (e-a-d-g-b-e)
A dot underneath means palm mute
^ = hammer on/pull off
I am tabbing the full song so soon the whole thing should be here.

INTRO

E ------------------------------------------------B ------------------------------------------------
G ------------------------------------------------
D ------------------------------------------------
A -----------6-----8-----10-----8-----6---------6-------5-------8-------6-------5
E  -------88-8-88-8-88-8--88-8-88-8----66--6--66--6--66--6--66--6--66--6
               . .     . .      . .       . .      . .         . .        . .         . .        . .         . . 

E --------------------------------------------------------------------------------------------------
B --------------------------------------------------------------------------------------------------
G --------------------------------------------------------------------------------------------------
D ----5----5---5---5---5------7---7----7----7----7^8----8----8----10-10-10-8-8-8-7^8^7
A --------------------------------------------------------------------------------------------------
E  -44--44--44-44--44----66--66--66--66--66-------88--88--88----------------------------
      . .    . .    . .  . .    . .      . .   . .     . .    . .   . .           . .   . .    . .


E -----------------------------------------------------------------------------------------------------
B -----------------------------------------------------------------------------------------------------
G -----------------------------------------------------------------------------------------------------
D ----7----7----7-7-7-8-8-8-10---5----5---5-5-5-7-7-7-8---7----7---7-7-7-8-8-10-10-7^8
A -----------------------------------------------------------------------------------------------------
E  -66--66--66-------------------44--44--44----------------66--66-66--------------------------


Add comment: