All tabs: 1331485
We love you! Do you like us?
Bands » Von » Veinen » Guitar tab

Veinen by Von guitar tab

This is the final page that leads you directly to the Guitar Pro tab, drum tab, bass guitar tab, piano chord, etc you've chosen. This page provides information concerning Veinen guitar tab such as its format, type of tab or chord, upload date, number of views, number of downloads and rating of this tab provided by thetabsbest.com users.

If the tab you have selected is a downloadable one (mostly these are Von Guitar Pro tabs), you need to insert so called "captcha" code and click "download" button. In case the code is correct you will be redirected to download page where your Veinen gp4 file will be prepared. If you have entered wrong "captcha" code, you will be asked to insert it once again to get your Veinen guitar tab.

If you browse all Von tabs or open the list of tabs and chords for Veinen, you can see there are not only Guitar Pro tabs. Guitar tabs and chords, piano & power tabs, drum tabs, bass tabs - they all can be not only in Guitar Pro file format, but also in txt. In this case no special program is needed to read the tab. All you need to do it to open such Veinen tab and you will see it displayed. If you wish, you can download our free tabs in txt.

thetabsbest.com tries to expand tabs database, adding new and hot songs as well as old and beloved melodies, so our archive could suit any person. Also we try to add chords and files for different music instruments, for example, you can find Von acoustic guitar tabs, piano chords or power tabs. Many songs like Veinen have not only Veinen guitar tab type, but provide wide selection of chords and tabs for all instruments. We also try to add more Von Guitar Pro tabs as they can bear data for whole band including sheet music.

Our newest addition - Von lyrics - is viewed the same. Select "lyrics" in the list of the tabs and chords and the text will be displayed on the next page.

File info:


Share it:

Rate it:
Rating: 0
Band nameVon »
Song nameVeinen »
Tab typeGuitar tab »
Added07/11/2008
Size1.98 Kb
File formattxt
Views/Loads31/1

Sponsored links:
Wrong code.

Text of tab

   
Band:  Von
Album: Satanic Blood
Song:  Veinen

Copyright (c)  Hellspawn Records 1999
Version 1.0 - dec. 13, 2005

Transcribed By: setsuna956
Email:          setsuna956@yahoo.com


.  - palm mute           /  - slide up to
\  - slide down to       ~  - vibrato
h  - hammer on           b  - Bend
p  - pull off            Suffixes for bend
t  - tap                 f  - full bend    h - half bend
ph - pinched harmonic    q  - quarter bend t - tap bend
*  - see comment         ^  - Hold bend    r release bend
x  - Stuccatto           ~  - vibrato bend
,  - slight palm mute    () - ghost note, sustained note
"  - tremolo note        <> - Trill

Tuning E A D G

Intro                    x1 Verse                          x7
|-------------------------|---------------------------------|
|-0-0-0-0-3-3-3-3-3-3-3-3-|---------0-0-0-0-3-3-3-3-3-3-3-3-|
|-------------------------|-4-4-4-4-------------------------|
|-------------------------|---------------------------------|

Break
|---------------------------------|-
|-----------------1-1-1-1-0-0-0-0-|-
|-2-2-2-2-3-3-3-3-----------------|-
|---------------------------------|-x2

-|---------------------------------|-
-|-----------------2-2-2-2-1-1-1-1-|-
-|-3-3-3-3-4-4-4-4-----------------|-
-|---------------------------------|-x2

-|---------------------------------|-
-|---------0-0-0-0-3-3-3-3-2-2-2-2-|-
-|-4-4-4-4-------------------------|-
-|---------------------------------|-x2

-|---------------------------------||
-|-0-0-0-0-1-1-1-1-4-4-4-4-3-3-3-3-||
-|---------------------------------||
-|---------------------------------||x2

([repeat Verse x4][repeat Break]) x3

[repeat Verse until end]

END


Add comment:


Comments (1)
ross

2014-10-11 07:22:37

esta bien