All tabs: 1331485
We love you! Do you like us?
Bands » U2 » One » Guitar tab

One by U2 guitar tab

This is the final page that leads you directly to the Guitar Pro tab, drum tab, bass guitar tab, piano chord, etc you've chosen. This page provides information concerning One guitar tab such as its format, type of tab or chord, upload date, number of views, number of downloads and rating of this tab provided by thetabsbest.com users.

If the tab you have selected is a downloadable one (mostly these are U2 Guitar Pro tabs), you need to insert so called "captcha" code and click "download" button. In case the code is correct you will be redirected to download page where your One gp4 file will be prepared. If you have entered wrong "captcha" code, you will be asked to insert it once again to get your One guitar tab.

If you browse all U2 tabs or open the list of tabs and chords for One, you can see there are not only Guitar Pro tabs. Guitar tabs and chords, piano & power tabs, drum tabs, bass tabs - they all can be not only in Guitar Pro file format, but also in txt. In this case no special program is needed to read the tab. All you need to do it to open such One tab and you will see it displayed. If you wish, you can download our free tabs in txt.

thetabsbest.com tries to expand tabs database, adding new and hot songs as well as old and beloved melodies, so our archive could suit any person. Also we try to add chords and files for different music instruments, for example, you can find U2 acoustic guitar tabs, piano chords or power tabs. Many songs like One have not only One guitar tab type, but provide wide selection of chords and tabs for all instruments. We also try to add more U2 Guitar Pro tabs as they can bear data for whole band including sheet music.

Our newest addition - U2 lyrics - is viewed the same. Select "lyrics" in the list of the tabs and chords and the text will be displayed on the next page.

File info:


Share it:

Rate it:
Rating: 0
Band nameU2 »
Song nameOne »
Tab typeGuitar tab »
Added07/09/2008
Size41.25 Kb
File formattxt
Views/Loads1/7

Sponsored links:
Wrong code.

Text of tab

   
Transcribed by rutahit@hotmail.com

          C               Am            Fmaj7             F
     x 3 2 0 1 0     x 0 2 2 1 0     x x 3 2 1 0     x x 3 2 1 x

        Fsus2             D              G5(open)         G5
     x x 3 0 1 x     x x 0 2 3 2     x x 0 0 x x     3 x 0 0 3 3

                        Cmaj7           Asus2
                     x 3 2 0 0 x     x 0 2 2 0 0

Gtr I (E A D G B E) - 'Elec. w/dirty tone and Leslie spkr. tremolo effect'
Gtr II (E A D G B E) - 'Elec. w/clean tone'
Gtr III (E A D G B E) - 'Acoustic'
Gtr IV (E A D G B E) - 'Fills'
Gtr V (E A D G B E) - 'Fills'


  Intro
  Moderately Slow Rock Q=90
  4/4

             Am                           D5
  Gtr I
  Q  E S S   W                           +H          E  E E
|----------|---------------------------|--------------------------|
|----------|---------------------------|--------------------------|
|----------|-5-------------------------|-(5)------------5h7-------|
|------5h7-|---------------------------|--------------------------|
|----------|---------------------------|--------------------------|
|----------|---------------------------|--------------------------|
|
| Gtr II                         |--3--|
| W          Q..   E. S  S S Q   S S S    E Q  E.  S S S Q    S S
|----------|-------0-----0---0---------|--------------------------|
|----------|-------1--3--1-3-1---3p1p0-|-----------5------------5-|
|----------|---------(2)-2---2---2-----|-------7---5-7p5-7----7-5-|
|----------|---------------------------|-------7---5-7p5-7----7---|
|----------|-0-------------------------|--3S5---------------------|
|----------|---------------------------|--------------------------|
|
| Gtr III    PM---------------|  PM----------|   PM----------|
| W          E.E E E     E   E E E        E E  E E   E   E  E E
|----------|------------------(0)------|--------------------------|
|----------|-------------------1-------|--------------------------|
|----------|-2-----------------2-------|--2-2--2------------2-0---|
|----------|-2-2-2-2-----2---2-2-2-----|--0-0--0-0---0---0--0-0---|
|----------|-0-0-0-0-----0---0-0-0-----|--0-0--0-0---0---0--0-----|
|----------|---------------------------|--------------------------|
           |Rhy Fig 1

   Fmaj7                     G

  +W                        +H                  E  S S
|-------------------------|----------------------------||
|-------------------------|----------------------------||
|-(7)---------------------|-(7)------------------------||
|-------------------------|------------------------5h7-||
|-------------------------|----------------------------||
|-------------------------|----------------------------||
|
|  E.S E.  S S S E    S S    S Q   E.  S S S Q     S S
|------0-----0---0--------|----------------------------||
|------1---3-1-3-1----3p1-|--1S3-------------3-------3-||
|------2---2-2-2-2----2---|--2S4---5---4h5p4-4-----5---||
|--3-3--------------------|--3S5---5---5-----------5---||
|-------------------------|----------------------------||
|-------------------------|----------------------------||
|
|  PM-----------------------------------------|
|  E E E E   E   E E  E        E E E E   E   E  E  E
|------0------------------|----------------------------||
|------1-1---------1------|----------------------------||
|------2-----------2------|----0-0-0-0---0---0--0------||
|--3-3-3-----3---3-3------|----0-0-0-0---0---0--0--0---||
|---------------------0---|----------------------------||
|---------------------0---|----3-3-3-3---3---3-(3)-3---||
                                          End Rhy Fig 1|


  Verse 1

  Am                    D5                         Fmaj7
  Gtr III w Rhy Fig 1 x2
  Gtr I
  W                    +W               E E       +W
|--------------------|--------------------------|--------------------|
|--------------------|--------------------------|--------------------|
|-5------------------|-(5)--------------5h7-----|-(7)----------------|
|--------------------|--------------------------|--------------------|
|--------------------|--------------------------|--------------------|
|--------------------|--------------------------|--------------------|
|
| Gtr II
| PM
| Q  E. S  S S Q  E     Q   E. S S S Q   +S   S    Q  E S S S  Q   E
|----0---------0-----|--------------------------|-----0---0----0-----|
|----1-(3)-1---1-----|--------------------------|-----1-3-1-3--1---1-|
|----2-----2-2-2-----|------7--5h7p5-7---(7)\---|-------2---2-(2)--2-|
|--------------------|------7--5h7p5-7---(7)\-3-|--3-----------------|
|-0---------------2S====5-----------------------|--------------------|
|--------------------|--------------------------|--------------------|
|Rhy Fig 2

   G                      Am                     D5

                  E S S   W                     +Q     E E E   E   Q   E
|-----------------------|---------------------|----------------------------|
|-----------------------|---------------------|----------------------------|
|-(7)-------------------|-5-------------------|-(5)------------------------|
|-------------------5h7-|---------------------|----------5h7---7---5---7---|
|-----------------------|---------------------|----------------------------|
|-----------------------|---------------------|----------------------------|
|
|
|  Q   E.S S S E  E E     Q  E S S S  Q    E     E  Q  E.    S S S Q  +E
|-----------------------|----0---0----0-------|----------------------------|
|------3----------3-----|----1-3-1-3--3---(3)-|----------------------------|
|--4---4-4h5p4-5----5\--|--------2---(2)---2--|--------7-----5h7p5-7--(7)\-|
|--5-----5-----5--------|---------------------|--------7-----5h7p5-7--(7)\-|
|-----------------------|-0-------------------|--3S=5----------------------|
|-----------------------|---------------------|----------------------------|


                                                  Chorus 1

   Fmaj7               G                          C
                                                  |--Rhy Fig 3
                                                  Gtr III
                                                  PM---------------|
                                                  E E E.E     E   E E.E
                                                  | | | |     |   | | |
                                                  / / / /     /   / / /
                                                  Gtr I
   H.            Q     E Q  E  E    Q     E E     W
|--------------------|-------------------------||-----------------------|
|--------------------|-------------------------||-----------------------|
|--5-----------------|-------------------------||-----------------------|
|--5-----------------|-5h7---------------------||-----------------------|
|--------------------|------5---------------3--||-3---------------------|
|--------------------|--------(5)--------------||-----------------------|
|
|                                                 Gtr II
|  Q   E S S S Q   E     Q  E.    S S S Q   E     Q   E.   S  S S Q   E
|------0---0---0-----|------------------0------||-----0-------0---0-----|
|------1-3---3-3-----|------------3-----3---3\-||-----1----3--1-3-1---3-|
|-(0)----2---2-2---2-|---4--5-----4h5p4--------||---------(0)---0-----0-|
|--3---------------3-|---5---------------------||-----------------------|
|--------------------|-------------------------||-3---------------------|
|--------------------|-------------------------||-----------------------|
                                  End Rhy Fig 2||Rhy Fig 3A


  Am                    Fmaj7                      C

  PM-----------------------|       PM              PM-------------|
  E E E.E. E    E E.E   E E E.E.   E    E E. E     E E E.E   E   E E.E.
  | | | |  |    | | |   | | | |    |    | |  |     | | | |   |   | | |
  / / / /  /    / / /   / / / /    /    / /  /     / / / /   /   / / /

  H       +Q        E   H.               +E  S S   W
|---------------------|--------------------------|-----------------------|
|---------------------|--------------------------|-----------------------|
|---------------------|--------------------------|-----------------------|
|---------------------|--------------------------|-----------------------|
|-0-------(0)---------|--------------------------|-3---------------------|
|-------------------3-|-1----------------(1)-3h5-|-----------------------|
|
|
| Q   Q    S  S Q   E   Q   E.  S  S  S Q    E     Q   E.  S S S Q   S S
|-----0----0----0-----|-----0-----(0)---0--------|-----0-----0---0-------|
|-----1----1h=3-1---3-|-----1---3-------3----3---|-----1---3---3-1---3p1-|
|-----2---------2---2-|-----2---2-----2-2----2---|---------0---0-----0---|
|---------------------|-3------------------------|-----------------------|
|-0-------------------|--------------------------|-3---------------------|
|---------------------|--------------------------|-----------------------|

                          Am                      F   Fsus2F          Fsus2F

  PM----------------------------------------------------------------------------
  E E E.E   E   E E.E     E E E.E   E   E E.E     E E E.   E   E.  E  E.   E
  | | | |   |   | | |     | | | |   |   | | |     | | |    |   |   |  |    |
  / / / /   /   / / /     / / / /   /   / / /     / / /    /   /   /  /    /

  H.              Q       H.              Q       H.                  E    E
|-----------------------|-----------------------|------------------------------|
|-----------------------|-----------------------|------------------------------|
|-----------------------|-----------------------|------------------------------|
|-----------------------|-----------------------|------------------------------|
|-3---------------2-----|-0---------------------|------------------------------|
|-----------------------|-----------------3-----|-1------------------(1)--(3)--|
|
|
| Q   E.  S S S Q   S S   Q   E.  S S S Q   S S   Q   E.     S S S Q       S S
|-----0-----0---0-------|-----0-----0---0-------|-----0--------0---0-----------|
|-----1---3-1-3-1---3p1-|-----1---3-1-3-1---3p1-|-----1------3-1-3-1-------3p1-|
|---------0-------------|---------2---2---------|-----0------2---2---------2---|
|-----------------------|-----------------------|-3----------------------------|
|-3---------------------|-0---------------------|------------------------------|
|-----------------------|-----------------------|------------------------------|

  C
  Gtr IV w/Fill 1
          End Rhy Fig 3--|

  PM---------------------|
  E E  E. E   E   E   E.E
  | |  |  |   |       | |
  / /  /  /   /       / /

  H           E   S S E S S
|---------------------------|
|---------------------------|
|---------------------------|
|---------------------------|
|-3-------------------3-5p3-|
|-----------------3h5-------|
|
|
| Q    E.   S S S E   E S S
|-----(0)-----0---0---0-----|
|-----(1)-----1h3-1---1-3p1-|
|-----(0)-------------0-0---|
|---------------------------|
|-3-------------------------|
|---------------------------|
              End Rhy Fig 3A|

  Am                            D                           G5(open)
  |--Rhy Fig 4
  Gtr III
  E E Q.  Q           E. E      Q    E E       E     E  E.  E
  | | |               |  |      |    | |       |     |  |   |
  / x /               /  x      /    / /       x     x  /   /
  Gtr IV
  H..    +E   a S +S  E +S  S   H             +E  a  E +E  +S   S
|-----------------------------|-----------------------------------|
|-----------------------------|-----------------------------------|
|-------------7b9r(7)b9r(7)p5-|-------------------7b=9=(9)r(7)p=5-|
|-7------(7)------------------|-7-------------(7)-----------------|
|-----------------------------|-----------------------------------|
|-----------------------------|-----------------------------------|
|Rhy Fig 4A
|
| Gtr I
| Q   E.S E S E.      E  S  S   Q    E.  S.    S  S  E  E   S   S
|-------5---------------------|-----------------------------------|
|-------5---------------------|------7---7--------x-------------1-|
|-----7-----x-7-------7--x--x-|------7---7-----x--x-------------2-|
|-----7-----x-7-------7--x--x-|-------------------------7-------3-|
|-----------------------------|-5--------------------5--5---0-----|
|-5---------------------------|-----------------------------0-----|
|
|
| Gtr II
| Q   E S S S Q          S  S   S E  E   S     S +S  Q      S S
|-----0---0---0---------------|-----------------------------------|
|-----1-x-1-3-1----------3p=1-|-----------------------------------|
|-----------2------------2----|------7---5h====7p(5)-7------5-----|
|-----------------------------|------7---5h====7p(5)-7------5h7\--|
|-0---------------------------|-3S5-------------------------------|
|-----------------------------|-----------------------------------|

  F                                 G5

                                                    End Rhy Fig 4--|
  Q  E E   E    E     E  E          Q   Q      Q            E      E
  |  | |   |    |     |  |          |   |      |            |      |
  /  / /   /    /     /  /          /   /      /            /      /

                         |--3--|                                   |--3--|
  H.      +E  a S +S  E +S  S S     H         +E    a E    +E   a  S +S  S
|--------------------------------|-----------------------------------------||
|--------------------------------|-----------------------------------------||
|-------------7b9r(7)b9r(7)p5----|------------------7b9====(9)--7pb9r(7)p5-||
|-7-------(7)-----------------7p====5---------(5)--------------------------||
|--------------------------------|-----------------------------------------||
|--------------------------------|-----------------------------------------||
|                                                            End Rhy Fig 4A|
|
|                                                                  |--3--|
| Q  E.  S S. S S  S  E  S    S     Q   E. S     S  S   S S   E    S  S  S
|--------------------------------|-----------------------------------------||
|----1---1-1----------1--1----1--|-----------------------------------------||
|----2---2-2--x-x--x--2--2----2--|----------------------------0------------||
|----3---3-3--x-x--x--3--3----3--|------5--x-----x--x---------0------------||
|--------------------------------|------x---------------------3----3h=5p=3-||
|-1------------------------------|-/3-------------------3h5----------------||
|
|
| Q  E.  S S  S Q        S    S     S E.Q     +E        Q          E
|----0-----0----0----------------|------0-----(0)------------------0-------||
|----1-----1----1--------3p===1--|--1S3-3-----(3)------------------3-------||
|--------2----2----------2-------|--2S4-----------------5------------------||
|-3------------------------------|--3S5------------------------------------||
|--------------------------------|-----------------------------------------||
|--------------------------------|-----------------------------------------||


  $
  Verse 2 & 3

  Am                             D5
  Gtr II w/Rhy Fig 2
  Gtr III w/Rhy Fig 1 x2 w/o PM
  Gtr IV
  H..      +E  a S +S  E +S  S   H          +E  a E +E   +S  S
|------------------------------|-------------------------------|
|------------------------------|-------------------------------|
|--------------7b9r(7)b9r(7)p5-|----------------7b9=(9)r=(7)p5-|
|-7--------(7)-----------------|-7----------(7)----------------|
|------------------------------|-------------------------------|
|------------------------------|-------------------------------|
|
| Gtr I
| Q  S E S  S  S  E     E E      E.E  S E S. S  S E  S S  S S
|------------------------------|---------------------5----3----|
|-----------------------1------|-6----6-6-6----------5-x--3-x--|
|----7-7-7-----x--------2------|-7----7-7-7------------x----x--|
|----7-7-7-----x--------2-x----|-7-7--7-7-7-----x--------------|
|-----------------------0-3----|-5----------------5------------|
|-5---------------3------------|-------------------------------|

  Fmaj7                            G

                          |--3--|                                  |--3--|
  H        +E  a S +S  E +S  S S   H         +E    a E    +E    a  S +S  S
|--------------------------------|-----------------------------------------|
|--------------------------------|-----------------------------------------|
|--------------7b9r(7)b9r(7)p5---|-----------------7b9====(9)---7pb9r(7)p5-|
|-7--------(7)-----------------7p==5---------(5)---------------------------|
|--------------------------------|-----------------------------------------|
|--------------------------------|-----------------------------------------|
|
|                                                                  |--3--|
| Q  S E S  E     S S   E S    S   E.E  S E S    S S  S S     E    S  S  S
|--------------------------------|-----------------------------------------|
|-1---------------------1--------|-----------------------------------------|
|-2--2-2-2--------x-x---2--------|---------------x-x-----------------------|
|-3--3-3-3--------------3-3----x-|-5-5--5-5-5----x-x-----------------------|
|--------------------------------|-5-5------------------------3----3h=5p=3-|
|-1------------------------------|-3-3----------------3h5------------------|

  Am                      D5

  H          E  E E   E   H        +E    a E    +E   S S
|-----------------------|--------------------------------|
|-----------------------|--------------------------------|
|---------------7b9-----|----------------7b9====(9)--7-5-|
|-7---------------------|-7--------(7)-------------------|
|-----------------------|--------------------------------|
|-----------------------|--------------------------------|
|
|
| Q  S E S S S  E   E E   E E  E.E  S  S     S S S S S S
|-----------------------|--------5-----------------------|
|----7-7-5---x-(x)------|------5-------------------------|
|----7-7-5---x-(x)------|-7-7--5-------x-----x-x-x-x-x-x-|
|-----------------------|-7-7----------x-----x-x---------|
|---------------------3-|-5-5----------------------------|
|-5-----------------5---|--------------------------------|

  Fmaj7                              G

                       |--3--|
  H        E a E     a S +S  S E.    H          E   a Q.
|----------------------------------|-----------------------------||
|----------------------------------|-----------------------------||
|------------7b9-----7b9r(7)p5-----|----------------7b9----------||
|-7----------------------------7---|-5---------------------------||
|----------------------------------|-----------------------------||
|----------------------------------|-----------------------------||
|
|
| Q  S E S S S   S S    S   S  S S   E E  S E S   Q      S S S S
|----------------------------------|-----------------------------||
|----------------------------------|------3-3--------------------||
|-2--2-2-x---x---x-x--------x------|-4-4--4-4--------------------||
|-3--3-3-x--------------3---x--x-x-|-5-5--5-5-5---5------x-x-x-x-||
|-----------------------3----------|-----------------------------||
|-1--------------------------------|-----------------------------||


   Chorus 2 & 3

   C                           Am                          F    Fsus2
   Gtr IV w/Fill 4 on D.S.
   Gtr IV w/Fill 2
   Gtr III w/Rhy Fig 3 w/o PM
   Gtr II w/Rhy Fig 3A
   Gtr I
   Q   E.S S S    E  S E.      Q  S E S  S S S S S S S S   E E  E. S S S S S S S S S
|----------------------------|---------------------------|---------------------------|
|--1---1-1---1----1--1-1-----|-1--1-1-1--x-x-1-1-1-1-----|-1----1--1-1-1-1-1-1-1-----|
|--0---0-0---0----0--0-0-----|-2--2-2-2--x-x-2-2-2-2-0-x-|-2----0--------0-0-0-0-x-x-|
|-(2)------------------------|-2---------------------0-x-|-3-3--3--------3-3-3-3-x-x-|
|--3-------------------------|-0-------------------------|---------------------------|
|----------------------------|---------------------------|---------------------------|

  C                                          Am

  Q  E S  +E  E  S.E.  Q  S S S S S S E Q    E E  E S S +S  S E  S E.
|--------------------|---------------------|-------------------------|
|----1-1--(1)----0-1-|----1-----1---x---1--|------1---1-(1)-x----0h1-|
|----0-0--(0)--------|-0--0-x-0-0-----0-0--|-2----2---2-(2)---2--2---|
|----2-2--(2)--------|-2--------------2----|-2-2--2-2---------2------|
|-3-----------3------|-3--------------3----|-------------------------|
|--------------------|---------------------|-------------------------|

                                     (2nd Time)To Coda
  F      Fadd9              C                           Am
                            Gtr I W/Rhy Fill 1 On D.S.  Gtr II w/Rhy Fig 1
                                                        Gtr III w/Rhy Fig 4 w/o PM
                                                        Gtr IV w/Rhy Fig 4A
  Gtr V      < < <  < < <
  H          E E S  S.S S   E.E  E S S S S S S E  S S   S S E. +S  E.  +H
|------------0-0------0-0-|-0-0--0-0-0-0-0-0-0-0--0-0-|-3-3-0--(0)-0---(0)----------|
|------------8-8-8-10-8-8-|-8-8--8-8-8-8-8-8-8-8--8-8-|-5-5-5--(5)-5---(5)----------|
|-------------------------|---------------------------|-----------------------------|
|-------------------------|---------------------------|-----------------------------|
|-------------------------|---------------------------|-----------------------------|
|-------------------------|---------------------------|-----------------------------|
|
|
| Gtr I
| E E  E.S S E E E          E E  E E   E   S S E  E     Q       E.   S. S  S E  E E
|--------3----------------|------0--------------------|--------------0--------------|
|---1--1-1----------------|-1----1--------------------|---------1----1--------------|
|---2--2-2-----2-2--------|-0----0-0------------------|---------2----2-----x--------|
|-3-3--3-----3-3-3--------|-2-2--2-2------------------|--------------------x--------|
|-------------------------|-3-3--3-3---x-------3--5---|-0-----------------------0-3-|
|-------------------------|----------------3h5--------|----------------------3------|

                                                                            D.S, al coda
  D                       F                            (G)

  E.S  +H                 E.S  +H                       E.S S  S.E S  +H
|-0-0--(0)--------------|-----------------------------|---------------------------------||
|-7-7--(7)--------------|-6-6--(6)--------------------|-8-8-8--8-8-8--(8)---------------||
|-----------------------|-----------------------------|---------------------------------||
|-----------------------|-----------------------------|---------------------------------||
|-----------------------|-----------------------------|---------------------------------||
|-----------------------|-----------------------------|---------------------------------||
|
|                                                                                 |-3-|
| Q     E.S S S E  E E    E.S     E.S  S S E  S.S  S    Q      S E S    +E  S S E S S S
|-----------------------|-----------------------------|---------------------------------||
|-------7-5-------------|---x----------x-x--------(x)-|---------------------------------||
|-------7-5---x---------|---------2-x---------2-2-----|---------------------------------||
|-------7----------7-7\-|---------3-x---------3-3-----|--------5-5-5----(5)-------------||
|-5-------------5--5-5\-|-----------------------------|-------------------------3-3h5p3-||
|-----------------------|-1----------------1----------|-3-------------------3h5---------||


  &

  C                   Cmaj7  Am                  Asus2 C              Cmaj7
  Gtr IV w/ Fill 5 x5
  Gtr III
  Q  E.E   E    E  E. E      Q     E.E   E   E E.E     Q  E.E   E E E.E
  |  | |   |    |  |  |      |     | |   |   | | |     |  | |   | | | |
  /  / /   /    /  /  /      /     / /   /   / / /     /  / /   / / / /
  Gtr II
  Q  E.  S E    E  E  S. S   E  E  E.  S S S Q   S S   Q  E.  S E Q   E.
|----0----------0-----0----|-------0-----0-----------|----------------0-|
|----1---1-3----------1--3-|-------1---1-1h3-1---3-1-|----1---1-3-3-----|
|----0---0-0---------------|-------2---2-----2---2---|----0-------------|
|--------------------------|-------------------------|------------------|
|-3----------------3-------|-0-----------------------|-3----------------|
|--------------------------|---(0)-------------------|------------------|
|
|
| Gtr I
| Q  E      E   E  E. E      Q     Q     E   E E.S S   Q  Q     E E E E
|--------------------------|-------0-----------------|------------------|
|----1-------------1-(0)---|-------1-----------1-0-0-|----1-----1---1---|
|----0-------------0-------|-------2-----2---2-2-----|----0-----0-0-0---|
|--------------------------|-------------2---2-2-----|--------------2---|
|-3--------(3)-(3)---------|-0-----------------------|-3------------3-2-|
|--------------------------|-------------------------|------------------|

  Am                 Asus2 C                           G5
                                                       Gtr IV w/Fill 6
  Q  E.E   E   E E   E.    Q   E.  E   E   E E.  E     Q.  E   E   E   E E.  E
  |  | |   |   | |   |     |   |   |   |   | |   |     |   |   |   |   | |   |
  /  / /   /   / /   /     /   /   /   /   / /   /     /   /   /   /   / /   /

  Q  E S S S S Q     S S   Q   E.    S S S Q     S S   Q   E   S S S S E E   S S
|----------0---0---------|-----0-------0---0---------|---------------------------|
|----1-------3-------3-1-|-----1-------1h3-1-----3-1-|-----3---0-0-3p1-3-----3p1-|
|----2---2-----------2-0-|-----------0-----------0-0-|-4---0---0-0-0-----0-------|
|----2-2-----------------|-----------2---------------|---------------------------|
|-0----------------------|-3-------------------------|---------------------------|
|------------------------|---------------------------|-3-------------------------|
|
|
| Q  H           S S S S   S E.S S E   E   E S E.      E E S S S S E   E S E.
|------------------------|---------------------------|---------------------------|
|----1-----------0-1-1-1-|-1-1-1-1-1---1---1-1-1-----|-3-3-3-3-3-3-3---3-3-3-----|
|----2-----------2-2-2-2-|-0-0-0-0-0---0---0-0-0-----|-4-4-4-4-4-4-4---4-4-4-----|
|----2-------------------|---------------------------|-5-5-5-5-5-5-5---5-5-5-----|
|-0----------------------|---------------------------|---------------------------|
|------------------------|---------------------------|---------------------------|

                                 Fmaj7

   E. E E.  E   E.  E E.  E      E. E E.  E   E E E.  E      E  E E.  E   E E    E.  E
   |  | |   |   |   | |   |      |  | |   |   | | |   |      |  | |   |   | |    |   |
   /  / /   /   /   / /   /      /  / /   /   / / /   /      /  / /   /   / /    /   /

  +E  E E.    S S S Q     S S   +E  E E.  S S E E E.    S   +E  E E.    S E S S +Q
|-----------------------------|-------0-------------------|-------0-----0-0-0-0-(0)------||
|-(1)-3-3-----1-3-1-1-----3-3-|-(3)p1-1---1-1-1-1---------|-------1-----1-1-1-1-(1)------||
|-----0---------0---0-----0-0-|-(0)---2---2-2-2-2-3p====2-|-(2)---------2-2-2-2-(2)------||
|-----------------------------|---------------------------|------------------------------||
|-----------------------------|---------------------------|------------------------------||
|-----------------------------|---------------------------|-----1------------------------||
|
|
|  E  E S S S S E   E.S E.       E  E S S E   E E S S S S    E  E S S E   E E    S S S S
|-----------------------------|---------------0-0-0-0-0-0-|------------------------------||
|--3--3-3-3-3-3-3---3-3-3-----|--1--1-1-1-1---1-1-1-1-1-1-|--1--1-1-1-1---1-1----1-1-1-1-||
|--4--4-4-4-4-4-4---4-4-4-----|--2--2-2-2-2---2-2-2-2-2-2-|--2--2-2-2-2---2-2----2-2-2-2-||
|--5--5-4-5-5-5-5---5-5-5-----|--3--3-3-3-3---3-3-3-3-3-3-|--3--3-3-3-3---3-3----3-3-3-3-||
|-----------------------------|---------------------------|------------------------------||
|-----------------------------|---------------------------|------------------------------||


   Chorus 4

   C                          Csus4C                          Csus4
   Gtr II w/Rhy Fig 3A x1.5
   Gtr III w/Rhy Fig 3 x1.5 w/o PM
   Gtr IV w/Fill 2 x12
   Gtr I
   Q   E.  S  S  S  E   S  S  E    Q   E.  S  S  S  E   S  S  E
|-12--12--12-12-12-12--12-12-13-|-12--12--12-12-12-12--12-12-13-|
|-13--13--13-13-13-13--13-13-13-|-13--13--13-13-13-13--13-13-13-|
|-12--12--12-12-12-12--12-12----|-12--12--12-12-12-12--12-12----|
|-------------------------------|-------------------------------|
|-------------------------------|-------------------------------|
|-------------------------------|-------------------------------|

   C                          Csus4C

   Q   E.  S  S  S  E   S  S  E    Q   S  E   S S S  E   S  S S S
|-12--12--12-12-12-12--12-12-13-|-12--12-12--12-----12--12-12-----|
|-13--13--13-13-13-13--13-13-13-|-13--13-13--13-----13--13-13-----|
|-12--12--12-12-12-12--12-12----|-12--12-12--12---x-12--12-12-x-x-|
|-------------------------------|---------------------------------|
|-------------------------------|---------------------------------|
|-------------------------------|---------------------------------|

                              Csus4    C                       Csus4

   a  Q   E.  S  S  S  E   S. S S S    a  Q   E.  S  S  S  E   S  S S S
|--9S12--12--12-12-12-12--13-13-----|--9S12--12--12-12-12-12--13-13-----|
|-10S13--13--13-13-13-13--13-13-x-x-|-10S13--13--13-13-13-13--13-13-x-x-|
|--9S12--12--12-12-12-12------------|--9S13--12--12-12-12-12------------|
|-----------------------------------|-----------------------------------|
|-----------------------------------|-----------------------------------|
|-----------------------------------|-----------------------------------|

   C                          CsusC                            Csus4  C   Csus4

   a  E   E   E   S  S  S  S  E   S  S S S    E.  E.  S  S  S  S S S  E   S  S S S
|--9S12--12--12--12-12-12-12-13--12-12-----|-12--12--12-12-12-13-----12--13-13-----|
|-10S13--13--13--13-13-13-13-13--13-13-x-x-|-13--13--13-13-13-13---x-13--13-13-x-x-|
|--9S12--12--12--12-12-12-12-----12-12-----|-12--12--12-12-12--------12------------|
|------------------------------------------|---------------------------------------|
|------------------------------------------|---------------------------------------|
|------------------------------------------|---------------------------------------|

   C                      Csus4           C5     C            Csus4

   a  Q   S  E   S  S  S  E   S  S S S    E  Q   E.  S  S. S  E    S  S S S
|--9S12--12-12--12-12-12-13--13-13-----|--------12--12-12-12-13---13-13-----|
|-10S13--13-13--13-13-13-13--13-13-x-x-|-10S13--13--13-13-13-13---13-13-x-x-|
|--9S12--12-12--12-12-12---------------|--9S12--12--12-12-12----------------|
|--------------------------------------|------------------------------------|
|--------------------------------------|------------------------------------|
|--------------------------------------|------------------------------------|

   C                 Csus4           C         Csus4
                                     Gtr V w/Fill 7
   Q   S  E   S S S  E   S  S S S    Q   E  S  S E  E   S  S  S  S
|-12--12-12--12-----13--13-13-----|-12--12-12-13---13--13-13-------||
|-13--13-13--13---x-13--13-13-x-x-|-13--13-13-13---13--13-13--x--x-||
|-12--12-12--12-------------------|-12--12-12------12--------12-12-||
|---------------------------------|--------------------------------||
|---------------------------------|--------------------------------||
|---------------------------------|--------------------------------||


     Outro

     C                                           Am                         Csus4
     Gtr II w/Rhy Fig 3A x2
     Gtr IV w/Fill 2 x4
     Gtr III
     E.  E   E     S  S. +E     E  E     E       E   E  S. S  S  S. +S   S  E   E     E
     |   |   |     |  |   |     |  |     |       |   |  |  |  |  |   |   |  |   |     |
     /   /   /     /  /   /     /  /     /       /   /  /  /  /  /   /   /  /   /     /
     Gtr V
     E   E   E     E     +E     E  E     E      +E   E  S  S  E     +S   S  E  +E     E
||-----(12)----------------------------------|------12------------------------------------|
||o-----13--13----15----(15)---13-13----15---|-(15)-13-13-13-15----(15)-13-13-(13)---15---|
||-------------------------------------------|--------------------------------------------|
||-------------------------------------------|--------------------------------------------|
||o------------------------------------------|--------------------------------------------|
||-------------------------------------------|--------------------------------------------|
||
||
||   Gtr I
||   E   E   S  S  S  S.  S  S  E  S  S S  S     E   E  S. S  S  S   S   S  E   S  S  S S
||--12--12--12-12-12-12--------13-13-13------|-/12--12-12-12-12-12---------13--13---------|
||o-13--13--13-13-13-13------x-13-13-13-x--x-|-/13--13-13-13-13-13-------x-13--13--x--x-x-|
||--12--12--12-12-12-12----------------------|-/12--12-12-12-12-12------------------------|
||-------------------------------------------|--------------------------------------------|
||0------------------------------------------|--------------------------------------------|
||-------------------------------------------|--------------------------------------------|

    Fmaj7                    Csus4

    Q       E      S S  +Q      E     E
    |       |      | |   |      |     |
    /       /      / /   /      /     /

   +E   E  +S   S  E    +E   E  E     E
|------12-(12)------------------------------|
|-(15)-13-(13)-13-15---(15)-13-13----15-----|
|-------------------------------------------|
|-------------------------------------------|
|-------------------------------------------|
|-------------------------------------------|
|
|
|   E   E   S   S  S  S  E   E  S  S. S S
|--12--12--12--12-12-12-----13-13-13--------|
|--13--13--13--13-13-13-----13-13-13--x-x---|
|--12--12--12--12-12-12---------------------|
|-------------------------------------------|
|-------------------------------------------|
|-------------------------------------------|

    C

    E   E  S. S  S  S. +S   S  S  S  E     S S
    |   |  |  |  |  |   |   |  |  |  |     | |
    /   /  /  /  /  /   /   /  /  /  /     / /

   +E   E  E     S  S  +S   S  E     E     E    x4
|---------12----13-13-(13)----12----12----------||
|-(15)-13-13----13-13-(13)-13-13----13----15---o||
|-----------------------------------------------||
|-----------------------------------------------||
|----------------------------------------------o||
|-----------------------------------------------||
|
|
|   E   E  S  S  S  S   S   S  S  S  S  S  S S  x4
|-/12--12-12-12-12-12------12-12-12-12-12-------||
|-/13--13-13-13-13-13---x--13-13-13-13-13--x-x-o||
|-/12--12-12-12-12-12------12-12-12-12-12-------||
|-----------------------------------------------||
|----------------------------------------------o||
|-----------------------------------------------||

                              Csus4 C        Am                              Csus4 C
   Gtr II w/Rhy Fig 3A
   Gtr IV w/Fill 2 x3
   Gtr III
   Q      E     S  S. +E   E  E     E        Q       E     S   S  +S   S  E  E     E
   |      |     |  |   |   |  |     |        |       |     |   |   |   |  |  |     |
   /      /     /  /   /   /  /     /        /       /     /   /   /   /  /  /     /
   Gtr V
   E  E   E     E     +E   E  E     E       +E   E   S  S  E       E      E  S  S  E
|----12----------------------------------|------12--------------------------------------|
|----13--13----15----(15)-13-13----15----|-(15)-13--13-13-15------13-----13-13-13-15----|
|----------------------------------------|----------------------------------------------|
|----------------------------------------|----------------------------------------------|
|----------------------------------------|----------------------------------------------|
|----------------------------------------|----------------------------------------------|
|
|
|  Gtr I
|  E  E   S  S  S  S   E   E  S  S  S  S     E   E   S  S  S   S  +S   S  E  S  S  S  S
|-12-12--12-12-12-12------12-13-13-12-12-|--12--12--12-12-12--12-(12)-12-12-13-13-12-12-|
|-13-13--13-13-13-13----- 13-13-13-13-13-|--13--13--13-13-13--13-(13)-13-13-13-13-13-13-|
|-12-12--12-12-12-12------12-------12-12-|--12--12--12-12-12--12-(12)-12-12-------12-12-|
|----------------------------------------|----------------------------------------------|
|----------------------------------------|----------------------------------------------|
|----------------------------------------|----------------------------------------------|

    Fmaj7                        Csus4 C
                                                Gtr II,III
    E.  E  E.    E      Q        Q              W
    |   |  |     |      |        |              |
    /   /  /     /      /        /              /
                                                Gtr V
   +E   E  S  S  E     +E   E    S  S  S  S     W.
|------12-----------------------------------|--12--------*|
|-(15)-13-13-13-15----(15)-13---13-13-13-13-|--13--------*|
|-------------------------------------------|--(5)-------*|
|-------------------------------------------|------------*|
|-------------------------------------------|------------*|
|-------------------------------------------|------------*|
|                                               W
|                                               Gtr IV
|
|   E.  E  S  S  S  S  +E   E    S  S  S  S     W.
|--12--12-12-12-12-12-(12)-12---13-13-12-12-|--12--------*|
|--13--13-13-13-13-13-(13)-13---13-13-13-13-|--13--------*|
|--12--12-12-12-12-12-(12)-12---12-12-12-12-|--12--------*|
|-------------------------------------------|------------*|
|-------------------------------------------|------------*|
|-------------------------------------------|------------*|


  Fill 1                     Fill 2

  Gtr IV         |---3--|    Gtr IV
  H     E a Q   +S  +S  S    H..  +E  a Q a  S +S  x8
|-------------------------||-----------------------||
|-------------------------||-----------------------||
|---------7b9===(9)r(7)p5-||-5----(5)-7b9-7pb9r(7)-||
|-------------------------||-----------------------||
|-------------------------||-----------------------||
|-------------------------||-----------------------||

  Fill 4

  Gt IV                   ~~~~~~~~~~
  H     E a Q +S  S     S E. +Q   +E  a Q +S  S  x7
|-------------------||---------------------------||
|-------------------||o-------------------------o||
|---------7b9r(7)p5-||--7S9--(9)--(9)-7b9r(7)p5--||
|-------------------||---------------------------||
|-------------------||o-------------------------o||
|-------------------||---------------------------||

  Rhy Fill 1

  Gtr I
  E  S S  E. S S E  E  E  S S
|-----------------------------||
|-1--1-1--1--1-1-1--1--1--1-1-||
|-0-------0--0-0-0--0--0--0-0-||
|-2-------2--2-2-2--2--2--2-2-||
|-3-------3--3-3-3--3--3--3-3-||
|-----------------------------||

  Fill 5                      Fill 6

  Gtr IV                      Gtr IV
    ~~~~~~~~~~~~~~
  S E. +Q   +E    a Q +S  S             S E..+Q   +E  a Q +S  S
|---------------------------||------||---------------------------||
|---------------------------||------||o-------------------------o||
|-7S9--(9)--(9)---7b9r(7)p5-||------||--5S7--(7)--(7)-7b9r(7)p5--||
|---------------------------||------||---------------------------||
|---------------------------||------||o-------------------------o||
|---------------------------||------||---------------------------||

  Fill 7

  Gtr V
  H     E  E   E   E.
|--------------------||
|---------13--13--15-||
|--------------------||
|--------------------||
|--------------------||
|--------------------||


Duration Legend
---------------
W - whole; H - half; Q - quarter; E - 8th; S - 16th; T - 32nd; X - 64th; a - acciaccatura
+ - note tied to previous; . - note dotted; .. - note double dotted
Uncapitalized letters represent notes that are staccato (1/2 duration)
Irregular groupings are notated above the duration line
Duration letters will always appear directly above the note/fret number it represents the
duration for.  Duration letters with no fret number below them represent rests.  Multi-
bar rests are notated in the form Wxn, where n is the number of bars to rest for.  Low
melody durations appear below the staff

Tablature Legend
----------------
 h   - hammer-on
 p   - pull-off
 b   - bend
 pb  - pre-bend
 r   - bend release (if no number after the r, then release immediately)
 /\  - slide into or out of (from/to "nowhere")
 s   - legato slide
 S   - shift slide
  - natural harmonic
[n]  - artificial harmonic
n(n) - tapped harmonic
 ~   - vibrato
 tr  - trill
 T   - tap
 TP  - trem. picking
 PM  - palm muting
\n/  - tremolo bar dip; n = amount to dip
 \n  - tremolo bar down
 n/  - tremolo bar up
/n\  - tremolo bar inverted dip
 =   - hold bend; also acts as connecting device for hammers/pulls
 <>  - volume swell (louder/softer)
 x   - on rhythm slash represents muted slash
 o   - on rhythm slash represents single note slash

Misc Legend
-----------
 |  - bar
||  - double bar
||o - repeat start
o|| - repeat end
*|  - double bar (ending)
 :  - bar (freetime)
 $  - Segno
 &  - Coda
Tempo markers -  = BPM(8/16=s8/s16), where s8 = swing 8ths, s16 = swing 16ths


Add comment: