All tabs: 1331485
We love you! Do you like us?
Bands » Tom Waits » Jockey Full Of Bourbon » Guitar tab

Jockey Full Of Bourbon by Tom Waits guitar tab

This is the final page that leads you directly to the Guitar Pro tab, drum tab, bass guitar tab, piano chord, etc you've chosen. This page provides information concerning Jockey Full Of Bourbon guitar tab such as its format, type of tab or chord, upload date, number of views, number of downloads and rating of this tab provided by thetabsbest.com users.

If the tab you have selected is a downloadable one (mostly these are Tom Waits Guitar Pro tabs), you need to insert so called "captcha" code and click "download" button. In case the code is correct you will be redirected to download page where your Jockey Full Of Bourbon gp4 file will be prepared. If you have entered wrong "captcha" code, you will be asked to insert it once again to get your Jockey Full Of Bourbon guitar tab.

If you browse all Tom Waits tabs or open the list of tabs and chords for Jockey Full Of Bourbon, you can see there are not only Guitar Pro tabs. Guitar tabs and chords, piano & power tabs, drum tabs, bass tabs - they all can be not only in Guitar Pro file format, but also in txt. In this case no special program is needed to read the tab. All you need to do it to open such Jockey Full Of Bourbon tab and you will see it displayed. If you wish, you can download our free tabs in txt.

thetabsbest.com tries to expand tabs database, adding new and hot songs as well as old and beloved melodies, so our archive could suit any person. Also we try to add chords and files for different music instruments, for example, you can find Tom Waits acoustic guitar tabs, piano chords or power tabs. Many songs like Jockey Full Of Bourbon have not only Jockey Full Of Bourbon guitar tab type, but provide wide selection of chords and tabs for all instruments. We also try to add more Tom Waits Guitar Pro tabs as they can bear data for whole band including sheet music.

Our newest addition - Tom Waits lyrics - is viewed the same. Select "lyrics" in the list of the tabs and chords and the text will be displayed on the next page.

File info:


Share it:

Rate it:
Rating: 0
Band nameTom Waits »
Song nameJockey Full Of Bourbon »
Tab typeGuitar tab »
Added07/07/2008
Size3.23 Kb
File formattxt
Views/Loads1/3

Sponsored links:
Wrong code.

Text of tab

   
tabs-database.com[http://www.tabs-database.com.com/]
Tom Waits – Jockey Full of Bourbon
From the CD Rain Dogs.

I separated different riffs with bar lines, just to make the tab clearer, and not so jumbled. 

Please rate this tab!

Intro

e|-----------|--------------|----------------------------|------------|
B|-----------|--------------|----------------------------|------------|
G|-----------|--------------|----------------------------|------------|
D|-2---------|-4---2--1--2--|--5--4--3--2---/10--9--8--7-|-9-9-9-9/---|
A|----2------|--------------|----------------------------|------------|
E|------3--2-|--------------|----------------------------|----------0-|


Verse:
      Em       B7
|--------------2---------|
|--------------0---------|
|-----0--------2---------|
|-----2--------1---------|
|-----2--------2---------|
|-----0------------------|

Em
Edna Millon in a drop dead suit
                B7
Dutch pink in a downtown train

Two dollar pistol, but the gun won't shoot
                         Em
I'm in the corner in the pouring rain

16 men on a deadman's chest
                             B7
And I've been drinking from a broken cup

Two pair of pants and a mohair vest
                      Em
I'm full of burbon; I can't stand up

Chorus:
     Am      Em       B7
|----------------------2---------|
|----1-----------------0---------|
|----2--------0--------2---------|
|----2--------2--------1---------|
|----0--------2--------2---------|
|-------------0------------------|

Am                   Em
Hey little bird, fly away home
     B7                Em
Your house is on fire; your children are alone
Am                   Em
Hey little bird, fly away hom
     B7                Em
Your house is on fire; your children are alone

Solo (It’s very close, I know that, but I can’t give you a 100% though).

e|---------------------------------|---------------|------------------|
B|---------------------------------|---------------|------------------|
G|---------------------------------|-------0--4--2-|-----------5-4-2--|
D|------------7—9/--2--2--2—-9/-2--|-2-2-----------|--5-4-2-1--------4|
A|--7--7--10-----------------------|---------------|------------------|
E|---------------------------------|---------------|------------------|

e|-----------------------------|--------------------------------------|
B|-----------------------------|--------------------------------------|
G|---9--9--8-----9--9--9--9--9-|--------------------------------------|
D|-----------9-----------------|---9-----9-----9-----9--9--8--9--8--9-|
A|-----------------------------|7-----7-----7-----7-------------------|
E|-----------------------------|--------------------------------------|

e|----------------------|------------------|--------------------------|
B|----------------------|------------------|--------------------------|
G|----------------------|------------------|4--5--4-------------------|
D|-8--9--8--7-----------|-----------4------|---------7--5--4----------|
A|-------------10--9--9-|6---2--/6----2--2-|------------------7--6----|
E|----------------------|------------------|--------------------------|

e|---------------|
B|-----------5---|
G|--------4------|
D|-----5---------|
A|--7------------|
E|---------------|
Added by tabs-database.com and our distinguished partners


Add comment: