All tabs: 1331485
We love you! Do you like us?

Theme From The Boys by The Shadows bass tab

This is the final page that leads you directly to the Guitar Pro tab, drum tab, bass guitar tab, piano chord, etc you've chosen. This page provides information concerning Theme From The Boys bass tab such as its format, type of tab or chord, upload date, number of views, number of downloads and rating of this tab provided by thetabsbest.com users.

If the tab you have selected is a downloadable one (mostly these are The Shadows Guitar Pro tabs), you need to insert so called "captcha" code and click "download" button. In case the code is correct you will be redirected to download page where your Theme From The Boys gp4 file will be prepared. If you have entered wrong "captcha" code, you will be asked to insert it once again to get your Theme From The Boys bass tab.

If you browse all The Shadows tabs or open the list of tabs and chords for Theme From The Boys, you can see there are not only Guitar Pro tabs. Guitar tabs and chords, piano & power tabs, drum tabs, bass tabs - they all can be not only in Guitar Pro file format, but also in txt. In this case no special program is needed to read the tab. All you need to do it to open such Theme From The Boys tab and you will see it displayed. If you wish, you can download our free tabs in txt.

thetabsbest.com tries to expand tabs database, adding new and hot songs as well as old and beloved melodies, so our archive could suit any person. Also we try to add chords and files for different music instruments, for example, you can find The Shadows acoustic guitar tabs, piano chords or power tabs. Many songs like Theme From The Boys have not only Theme From The Boys bass tab type, but provide wide selection of chords and tabs for all instruments. We also try to add more The Shadows Guitar Pro tabs as they can bear data for whole band including sheet music.

Our newest addition - The Shadows lyrics - is viewed the same. Select "lyrics" in the list of the tabs and chords and the text will be displayed on the next page.

File info:


Share it:

Rate it:
Rating: 0
Band nameThe Shadows »
Song nameTheme From The Boys »
Tab typeBass tab »
Added06/26/2008
Size8.27 Kb
File formattxt
Views/Loads31/1

Sponsored links:
Wrong code.

Text of tab

   
Date: Sun, 16 Jun 2002 19:28:53 +0300
From: =?ISO-8859-1?Q?jan_bj=F6rklund?= 
Subject: s/shadows/theme_from_The_boys.btab

s/shadows/Theme_from_The_boys.btab

Basstab by Jan Bjorklund, Finland 
You are welcome to request for basstabs!
Bienvenidos a pedirme transcripciones para el bajo!
Fingering and positions as suggested by TablEdit. 

TablEdited by Jan Bjorklund
Tuning : E A D G 	Time Signature: 2/4

 |       |        |       |        |       |        |       |        
|----------------|4-------4-------|----------------|----------------|
|----------------|----------------|2-------2-------|----------------|
|5-----------5---|----------------|----------------|0-------0-2-4---|
|----------------|----------------|----------------|----------------|

 |       |        |       |        |       |        |       |        
|----------------|4-------4-------|----------------|----------------|
|----------------|----------------|2-------2-------|----------------|
|5-------5---5---|----------------|----------------|0-------0-2-4---|
|----------5-----|----------------|----------------|----------------|

 |       |        |       |        |       |        |       |        
|----------------|----------------|----------------|----------------|
|0-------0-4-0---|----------------|2-------2---2---|----------------|
|----------------|2-------2---2---|----------------|0-------0-2-4---|
|----------------|----------------|----------------|----------------|

 |       |        |       |        |       |        |       |        
|----------------|----------------|----------------|----------------|
|0-------0---0---|----------------|2-------2-------|----------------|
|----------0-----|2-------2---2---|------------2---|0-------0-2-4---|
|----------------|----------------|----------------|----------------|

 |       |        |       |        |       |        |       |        
|----------------|----------------|----------------|----------------|
|0-------0-------|----------------|0-------0-------|----------------|
|----------------|0-------0-2-4---|----------------|0-------0-------|
|----------------|----------------|----------------|----------------|

 |       |        |       |        |       |        |       |        
|----------------|2---------2-----|----------------|----------------|
|0---0---3-------|--------3---3---|----------------|----------------|
|----------------|----------------|3-------3-------|3-------3---3---|
|----------------|----------------|----------------|----------------|

 |       |        |       |        |       |        |       |        
|----------------|2-----------2---|----------------|----------------|
|0-------0---3---|--------3-------|----------------|----------------|
|----------------|----------------|0-------0-------|0---0-------0---|
|----------------|----------------|----------------|----------------|

 |       |        |       |        |       |        |       |        
|----------------|2-----------2---|------------0---|----------------|
|0-------0---3---|--------3-------|----------2-----|----------------|
|----------------|----------------|3-------3-------|3-------3-3-3---|
|----------------|----------------|----------------|----------------|

 |       |        |       |        |       |        |       |        
|----------------|----------------|----------------|----------------|
|----3-----------|----------------|----------------|----------------|
|1-------1-------|1-------1---1---|0-------0-------|0-------0-2-4---|
|----------------|----------------|----------------|----------------|

 |       |        |       |        |       |        |       |        
|----------------|----------------|----------------|----------------|
|0-------0-4-0---|----------------|2-------2-------|----------------|
|----------------|2-------2-------|----------------|0-------0-2-4---|
|----------------|----------------|----------------|----------------|

 |       |        |       |        |       |        |       |        
|----------------|----------------|----------------|----------------|
|0-------0-4-0---|----------------|2-------2---2---|----------------|
|----------------|2-------2---2---|----------------|0---0---0-2-4---|
|----------------|----------------|----------------|----------------|

 |       |        |       |        |       |        |       |        
|----------------|----------------|----------------|----------------|
|0-------0---0---|----------------|2-------2-------|----------------|
|----------0-----|2-------2---2---|------------2---|0-------0-2-4---|
|----------------|----------------|----------------|----------------|

 |       |        |       |        |       |        |       |        
|----------------|----------------|----------------|----------------|
|0-------0---0---|----------------|0-------0-------|----------------|
|----------------|0-------0---0---|----------------|0-------0---0---|
|----------------|----------------|----------------|----------------|

 |       |        |       |        |       |        |       |        
|----------------|2---------2-----|----------------|----------------|
|0---0---3---3---|--------3---3---|----------------|----------------|
|----------------|----------------|3-------3-------|3-------3-3-3---|
|----------------|----------------|----------------|----------------|

 |       |        |       |        |       |        |       |        
|----------------|----------------|----------------|----------------|
|0-------0---2---|3-------0---3---|----------------|----------------|
|----------------|----------------|0-------0-------|0---0---0-0-0---|
|----------------|----------------|----------------|----------------|

 |       |        |       |        |       |        |       |        
|----------------|----------------|------------0---|----------------|
|0-------0---0---|3-------0---0---|----------2-----|----------------|
|----------------|----------------|3-------3-------|3-------3-3-3---|
|----------------|----------------|----------------|----------------|

 |       |        |       |        |       |        |       |        
|----------------|----------------|----------------|----------------|
|----3-----------|----------------|----------------|----------0-2---|
|1-------1-------|1-------1---1---|0-------0-------|3-------3-------|
|----------------|----------------|----------------|----------------|

 |       |        |       |        |       |        |       |        
|----------2-----|----------------|0-------0-------|----------------|
|3-------3---3---|0-------0-------|----------------|----------0-2---|
|----------------|----------------|----------------|3-------3-------|
|----------------|----------------|----------------|----------------|

 |       |        |       |        |       |        |       |        
|----------2-----|----------------|0-------0---0---|----------------|
|3-------3---3---|0-------0---0---|----------------|----------0-2---|
|----------------|----------------|----------------|3---3---3-------|
|----------------|----------------|----------------|----------------|

 |       |        |       |        |       |        |       |        
|----------2-----|----------------|0-------0-------|----------------|
|3-------3---3---|0-------0---0---|------------0---|----------0-2---|
|----------------|----------------|----------------|3-------3-------|
|----------------|----------------|----------------|----------------|

 |       |        |       |        |       |        |       |        
|----------------|----------------|----------------|----------------|
|3-------3-------|----------------|3-------3---3---|----------------|
|----------------|1-------1---1---|----------------|1-------1---1---|
|----------------|----------------|----------------|----------------|

 |       |        
|----------------|
|3---------------|
|----------------|
|----------------|


Created with TablEdit http://www.tabledit.com/

............................................................


Add comment:


Comments (1)
Les Drury

2014-10-16 03:34:28

Brilliant