All tabs: 1331485
We love you! Do you like us?
Bands » The Rollin Stones » Angie » Guitar tab

Angie by The Rollin Stones guitar tab

This is the final page that leads you directly to the Guitar Pro tab, drum tab, bass guitar tab, piano chord, etc you've chosen. This page provides information concerning Angie guitar tab such as its format, type of tab or chord, upload date, number of views, number of downloads and rating of this tab provided by thetabsbest.com users.

If the tab you have selected is a downloadable one (mostly these are The Rollin Stones Guitar Pro tabs), you need to insert so called "captcha" code and click "download" button. In case the code is correct you will be redirected to download page where your Angie gp4 file will be prepared. If you have entered wrong "captcha" code, you will be asked to insert it once again to get your Angie guitar tab.

If you browse all The Rollin Stones tabs or open the list of tabs and chords for Angie, you can see there are not only Guitar Pro tabs. Guitar tabs and chords, piano & power tabs, drum tabs, bass tabs - they all can be not only in Guitar Pro file format, but also in txt. In this case no special program is needed to read the tab. All you need to do it to open such Angie tab and you will see it displayed. If you wish, you can download our free tabs in txt.

thetabsbest.com tries to expand tabs database, adding new and hot songs as well as old and beloved melodies, so our archive could suit any person. Also we try to add chords and files for different music instruments, for example, you can find The Rollin Stones acoustic guitar tabs, piano chords or power tabs. Many songs like Angie have not only Angie guitar tab type, but provide wide selection of chords and tabs for all instruments. We also try to add more The Rollin Stones Guitar Pro tabs as they can bear data for whole band including sheet music.

Our newest addition - The Rollin Stones lyrics - is viewed the same. Select "lyrics" in the list of the tabs and chords and the text will be displayed on the next page.

File info:


Share it:

Rate it:
Rating: 0
Band nameThe Rollin Stones »
Song nameAngie »
Tab typeGuitar tab »
Added06/23/2008
Size4.29 Kb
File formattxt
Views/Loads3/0

Sponsored links:
Wrong code.

Text of tab

   
Harmonic intro
e-------------------|
B-------------------|
G-------------------|
D-------------------|
A-<12>--------------|
E-------------------|

   Am                              E7
e--0--0--0-----3-0-----------|---------0-------0----0------|
B--1-----1-----1-------1-----|-------3---3-----3-----------|
G--2-----2----------2--------|-----4-------4---4-------4-0-|
D--2---------2-----------2-2-|-----------------------------|
A--0-------------------------|-----------------------------|
E----------------------------|--0------------4-------------|

   Gsus4          FsuF4                CsCs4         G/B 
e---------3---------------1---|------1------------0----------|
B-------3---3-----1--1------1-|------------1------1------3---|
G-----5-------5---3--2--------|----2-------0-0-------------0-|
D--5------------5-3--3--------|--3-------3---2---------0-----|
A-----------------------------|--------3-------------2-------|
E-----------------------------|------------------------------|

   Am verse
e-------0---0----5-5-5-3----|
B-------1---1----5-5-5-3-5--|
G--2----2---2-2----------5--|
D--2--------2-2-------------|
A--0----------0-------------|
E---------------------------|

[Intro]
Am         E7           Gsus4           Fsus4  F     Csus4 Csus2 C   G/B

Am         E7           Gsus4           Fsus4  F     Csus4 Csus2 C   G/B
 An__gie__, An__gie___, when will those clouds all disappear______?
Am         E7           Gsus4         Fsus4 F    Csus4 Csus2 C
 An__gie__, An__gie___, where will it lead us from here___?

[Chorus]
        G                            Dm           Am
With no loving  in our souls_ and no money in our coats_
C          F         G
 You can't say we're satisfied

   Am         E7           Gsus4     Fsus4  F     Csus4 Csus2 C   G/B
But An__gie__, An__gie___, you can't say we never tried___
Am         E7                     Gsus4        Fsus4  F     Csus4 Csus2 C   G/B
  Angie__, you're beautiful yeah, but ain't it time we said goodbye____
Am         E7                   Gsus4    Fsus4  F           Csus4 Csus2 C
  Angie__,    I still love you, remember all those nights we cried___?

[Chorus]
        G                                  Dm           Am
All the dreams we held so close  seemed to all go up in smoke_
C       F               G
 Let me whisper in your ear__

Am         E7           Gsus4         Fsus4 F    Csus4 Csus2 C   G/B
 An__gie__, An__gie___, where will it lead us from here___?

[Solo (piano)]
Am         E7           Gsus4         Fsus4 F    Csus4 Csus2 C   G/B
Am         E7           Gsus4         Fsus4 F    Csus4 Csus2 C

Solo
e-8--7-7--5--|-7--5-5-4--|---7-5---6-5-----|---------|
B------------|-----------|-------8-----8-6-|-6-5-----|
G------------|-----------|-----------------|-----7-5-|
  Am           E7           G       F        C

[Chorus]
     G                              Dm                 Am
Ooh, Angie don't you weep, all your kisses still taste sweet
C            F               G
 I hate that sadness in your eyes

   Am        E7        Gsus4    Fsus4  F     Csus4 Csus2 C   G/B
But Angie__,  Angie__, ain't it time we said goodbye____?

[Solo (strings)]
Am         E7           Gsus4         Fsus4 F    Csus4 Csus2 C

Solo
e10-12~~~~~~-|-12--10-10-|-10-10-10-8-5-|-8-------|
B------------|-----------|--------------|---------|
G------------|-----------|--------------|---------|
  Am           E7           G       F     C

[Chorus]
        G                            Dm           Am
With no loving  in our souls_ and no money in our coats_
C          F          G
 You can't say_ we're satisfied___

[Bridge]
Dm                          Am
But Angie, I still love you baby_,
Dm                           Am
everywhere I look I see your eyes__
Dm                             Am
There ain't a woman that comes close to_ you__
C       F              G
Come on baby_ dry your eyes___

Am         E7           Gsus4    Fsus4  F     Csus4 Csus2 C   G/B
 An__gie__, An__gie___, ain't it good to be alive______?
Am         E7           Gsus4    Fsus4  F     Csus4 Csus2 C
 An__gie__, An__gie___, they can say we never tried________

Chords:
Am    x02210
E7    020100
Gsus4 355533
Fsus4 133311
F     133211
Csus4 x33010
Csus2 x30010
G/B   x20030
C     x32010
G     320033
Dm    xx0321


Add comment: