All tabs: 1331485
We love you! Do you like us?
Bands » The Beatles » I Want You » Guitar tab

I Want You by The Beatles guitar tab

This is the final page that leads you directly to the Guitar Pro tab, drum tab, bass guitar tab, piano chord, etc you've chosen. This page provides information concerning I Want You guitar tab such as its format, type of tab or chord, upload date, number of views, number of downloads and rating of this tab provided by thetabsbest.com users.

If the tab you have selected is a downloadable one (mostly these are The Beatles Guitar Pro tabs), you need to insert so called "captcha" code and click "download" button. In case the code is correct you will be redirected to download page where your I Want You gp4 file will be prepared. If you have entered wrong "captcha" code, you will be asked to insert it once again to get your I Want You guitar tab.

If you browse all The Beatles tabs or open the list of tabs and chords for I Want You, you can see there are not only Guitar Pro tabs. Guitar tabs and chords, piano & power tabs, drum tabs, bass tabs - they all can be not only in Guitar Pro file format, but also in txt. In this case no special program is needed to read the tab. All you need to do it to open such I Want You tab and you will see it displayed. If you wish, you can download our free tabs in txt.

thetabsbest.com tries to expand tabs database, adding new and hot songs as well as old and beloved melodies, so our archive could suit any person. Also we try to add chords and files for different music instruments, for example, you can find The Beatles acoustic guitar tabs, piano chords or power tabs. Many songs like I Want You have not only I Want You guitar tab type, but provide wide selection of chords and tabs for all instruments. We also try to add more The Beatles Guitar Pro tabs as they can bear data for whole band including sheet music.

Our newest addition - The Beatles lyrics - is viewed the same. Select "lyrics" in the list of the tabs and chords and the text will be displayed on the next page.

File info:


Share it:

Rate it:
Rating: 0
Band nameThe Beatles »
Song nameI Want You »
Tab typeGuitar tab »
Added05/05/2008
Size11.23 Kb
File formattxt
Views/Loads3/0

Sponsored links:
Wrong code.

Text of tab

   
I Want You (She's So Heavy)

The Beatles



|Dm               |E7-9    Bb     |



A+           F        Am

               I want you      I want you so bad    I want you

Am                      Dm7        F        G       G#+  Am    Am7

I want you so bad  it's driving me mad it's driving me   mad

       Dm   Dm7                                           Dm

I want you      You know I want you so bad babe.   I want you

                                C          Bb                   E7-9

You know I want you so bad it's driving me mad it's driving me  mad



E7-9 = xx0101

A+ = xx3221

G#+ = xx2110



I Want You (She's So Heavy)

The Beatles



   |-------------------------|-------------6-----6-----|   |-------5-----|

   |---------------------3---|-0-------3---------6---6-|   |-----6-6-----|

12 |-------------------2---2-|-1-----4---4-----7---7---| 6 |---6-6-6-----|

-- |-0---0-3-0-------0-3-0---|-----0-3-----8-8-------7-| - |-7---7-7-----|

8  |---0-------0---0---------|---2---------------------| 8 |-------------|

   |-------------1-----------|-------------------------|   |-------------|

     |_|_| |_|_| |_|_| |_|_|   |_|_| |_|_| |_|_| |_|_|       |_|_| |.



   |-------------------------|-------------------------|   |-------------|

12 |-------------------------|-------3-----------------| 6 |-------------|

-- |-5---------------------0-|---------3-2-1-----1-3-5-| - |-0-----0-----|

8  |-------0-----1-----3-----|-0-----------------------| 8 |-------------|

     |.    |.    |.    |  _|   |.    |_|_| |.    |_|_|       |.    |.







  |---------|   ||---------------|--------------------|-----------------|

  |---------|   ||---------------|------------------6-|-----------------|

2 |-----5---| 4 ||o-7(9)---------|---------5----7-----|-7-5-----5---7---|

- |---7-----| - ||o--------------|-------7------------|-----7-----------|

4 |---------| 4 ||---------------|--------------------|-----------------|

  |---------|   ||---------------|--------------------|-----------------|

    ;_| |           |              ; ; ;_| |____|   |   |_| |   |   |

      I want        you                  I want you so  bad

  |---------|   ||---------------|--------------------|-----------------|

2 |---------| 4 ||o--------2-0---|--------------------|------------2-0--|

- |---------| - ||o-0----------3-|-0------------------|-0--------------3|

4 |---------| 4 ||---------------|------------------0-|-----------------|

                    d.     |=|_|   d.               |   d.         |=|_|







|-------------------|-------------------------|----------------------------|

|-------------------|-------------------------|----------------------------|

|-------------5-----|-7(8)(7)(8)(7)(8)(7)p5\2-|-------------5----7---7(8)--|

|-----------7-------|-------------------------|-----------7----------------|

|-------------------|-------------------------|----------------------------|

|-------------------|-------------------------|----------------------------|

  ; ; ; ; ;_| |       |_|__|__|  |__|__|==|_|   ; ; ; ; ;_| |____|___|_|

            I want    you                                 I want you so

|-------------------|-------------------------|----------------------------|

|-------------2-0---|-------------------------|----------------------2-0---|

|-0---------------3-|-0-----------------------|-0---0--------------------3-|

|-------------------|------------------0------|----------------------------|

  d.          |=|_|   d.               |        |   |   ; ; ;    ;   |=|_|







|-----------------|-------------------|-------------------|----------------|

|-----------------|-------------------|-------------------|----------------|

|-7-5-----5-------|-------------------|-------------------|----------------|

|-----7-------7---|-5------5--7---5---|-------------------|----------------|

|-----------------|---7---------------|-7-5----3--0-------|----------------|

|-----------------|-------------------|-------------------|----------------|

  |_| |   |   |     |_|    |  |   |     |_|    |  d

  bad         it's driving me mad it's driving me mad

|-----------------|-------------------|-------------------|----------------|

|-----------------|-0-----------------|-------------------|----------------|

|-0-------3-------|-------------------|-----------0-----0-|-0-------0----3-|

|-----------------|-----------1-------|-3------4----------|----------------|

  d       d         d         d         |      |  |.   _|   d       |.  _|



  |--------|   |-------------|---------------------------|---------------------|

  |------6-|   |-8(10)-------|--------------------8--10--|-8-------------10----|

2 |---7----| 4 |-------------|---7---7-----7-10----------|---10-7---10---------|

- |--------| - |-------------|---------------------------|---------------------|

4 |--------| 4 |-------------|---------------------------|---------------------|

  |--------|   |-------------|---------------------------|---------------------|

    ;_|  |       |             ;_|   |_____| |____|   |    |__| |    |    |

       I want    you            (You know) I want you so   bad            babe

  |--------|   |-------------|---------------------------|---------------------|

2 |--------| 4 |-------------|-0-0---0-------------------|-0---------0---------|

- |(3)-0-4-| - |-0-----0---0-|--------------------5---3-0|----------------5p3p0|

4 |--------| 4 |-------------|---------------------------|---------------------|

    |__| |       d     |   |   |_|   |       ;   _|   |_|  d         |    |=|_|







|------------------|---------------------------|-------------------------|

|------------6-----|-8(10)(8)(10)(8)(10)(8)--6-|------------------8---10-|

|----------7-------|---------------------------|---7---7-----7-10--------|

|------------------|---------------------------|-------------------------|

|------------------|---------------------------|-------------------------|

|------------------|---------------------------|-------------------------|

          _| |       |__|__|__|   |__|___|___|   ;_|   |_____| |____|   |

           I want    you                          (You know) I want you so

|------------------|---------------------------|-------------------------|

|-0------3-0-------|-0------------0------------|-0-----------5----3---0--|

|------------3-0---|---------------------3p0---|-------------------------|

|----------------3-|-------------------------0-|-------------------------|

  d      |_| |=|_|   d            |      |=|_|   d           |____|   |







|----------------|-------------------|   |-----------|   |-----------------|

|-8-6-----6------|-------------------|   |-----------|   |-0---6-6-6-6---6-|

|-----7-------7--|-5-------5--7---5--| 2 |-----------| 4 |-----7-7-7-7---7-|

|----------------|----7--------------| - |-5--6----7-| - |-2---6-6-6-6---6-|

|----------------|-------------------| 4 |-----------| 4 |-----7-7-7-7---7-|

|----------------|-------------------|   |-----------|   |-----------------|

  |_| |   |   |    |__|    |  |   |        |__|____|       |   |_| |_| ;_|

  bad         it's driving me mad it's     driving me      mad

|----------------|-------------------|   |-----------|   |-----------------|

|-0--------------|-------------------| 2 |-0--0----2-| 4 |-----------------|

|----------------|-3----------1------| - |-----------| - |-----------------|

|---------1------|-------------------| 4 |-----------| 4 |-0-0-0-0-0-0-0-0-|

  d       d        d          d            |__|____|       |_|_|_| |_|_|_|





                                          +-----------------|

                                          | 1               |

                                          |                 |

|-----------------------|-----------------|-----------------||

|-6-6-------------------|-----6-6-6-6-6-6-|-6---------------||

|-7-7-------------------|-----7-7-7-7-7-7-|-7-----------5--o||

|-6-6-------------------|-----6-6-6-6-6-6-|-6---------7----o||

|-7-7-------------------|-----7-7-7-7-7-7-|-7---------------||

|-----------------------|-----------------|-----------------||

  |_|                     ; ; |_| |_|_|_|   |   ; ; ;_| |

                                                      I want

|-----------------------|-----------------|-----------------||

|-----------------------|-----------------|----------------o||

|-------------7-(7)-5---|-----------------|----------------o||

|-0-4-2-1-0-7---------5-|-0-0-0-0-0-0-0-0-|-0---------------||

  |_|_|_| |_|=|  |==|_|   |_|_|_| |_|_|_|   d





+-----------------

| 2,3

|

|-----------------|    |-------------------------|-------------4--4--------|

|-6---------------|    |-------------------------|---------3-0-3--3--------|

|-7------5-----7--| 12 |-------------------------|-------------3--3--------|

|-6---------------| -- |-0---0-3-0-------0-3-0---|-----0-3-----3--3--------|

|-7---------------| 8  |---0-------0---0-------0-|---2---------------------|

|-----------------|    |-------------1-----------|-4-----------------------|

  |  ; ; |     |         |_|_| |_|_| |_|_| |_|_|   |_|_| |_|_| | _|  ; ; ;

         She's so                                              heavy

|-----------------|    |-------------------------|-------------------------|

|-----------------| 12 |-0-----------------------|-----------------------0-|

|-----------------| -- |-----------------------0-|---------3-2-1---3-1-3---|

|-0---------------| 8  |-------0-----1-----3-----|-0----(0)----------------|

  d                      |.    |.    |.    |  _|   |.    |_|_| |  _| |_|_|







  |-1---------------|    |-5-5---------5-5--(5)----|-7------------------------|

  |-2---------------|    |-6-6---6-6---6-6--(6)----|-9-9-9--------------------|

6 |-2---------------| 12 |-7---7-7---7-5-5-5-5-5-5-|-7-7-7--------------------|

- |-3---------------| -- |---7-----7---7-7-7-7-7-7-|-9-9-9-----------0-3--0---|

8 |-----------------| 8  |-------------5-5---------|-7-----7------------------|

  |-----------------|    |-------------------------|---------8-7-6-6--------4-|

    d                      |_|_| |_|_| |_|_| |_|_|   |_|_| |_|_| |_|_| |__|_|

            She's so       heavy heavy heavy

  |-----------------|    |-------------------------|--------------------------|

6 |---------------3-| 12 |-0-----------------------|------------------------0-|

- |-0-0-4-0-4-------| -- |-----------------------0-|---------3-2-1----(1)-3---|

8 |-----------------| 8  |-------0-----1-----3-----|-0----(0)-----------------|

    |_|_| |_|_____|        |.    |.    |.    |  _|   |.    |_|_| |.    |__|_|







  |------------|   |----------||

  |-2-----2----|   |----------||

6 |-2-----2----| 2 |-----5---o||

- |-2-----3----| - |---7-----o||

8 |-0-0-4-0----| 4 |----------||

  |------------|   |----------||

    |_|_| |.         ;_| |

                       I want

  |------------|   |----------||

6 |-----2------| 2 |---------o||

- |-0-4---0----| - |---------o||

8 |------------| 4 |----------||

    |_|_| |.



I found this version somewhere. But I think that is so good that you must see it.

Itīs perfect.

But if you have a better version please send me it.

If there are some mistakes or if you have any comments, please mail me:     janyx@post.sk

(Excuse my English:)


Add comment: