All tabs: 1331485
We love you! Do you like us?

Here, There And Everywhere by The Beatles guitar tab

This is the final page that leads you directly to the Guitar Pro tab, drum tab, bass guitar tab, piano chord, etc you've chosen. This page provides information concerning Here, There And Everywhere guitar tab such as its format, type of tab or chord, upload date, number of views, number of downloads and rating of this tab provided by thetabsbest.com users.

If the tab you have selected is a downloadable one (mostly these are The Beatles Guitar Pro tabs), you need to insert so called "captcha" code and click "download" button. In case the code is correct you will be redirected to download page where your Here, There And Everywhere gp4 file will be prepared. If you have entered wrong "captcha" code, you will be asked to insert it once again to get your Here, There And Everywhere guitar tab.

If you browse all The Beatles tabs or open the list of tabs and chords for Here, There And Everywhere, you can see there are not only Guitar Pro tabs. Guitar tabs and chords, piano & power tabs, drum tabs, bass tabs - they all can be not only in Guitar Pro file format, but also in txt. In this case no special program is needed to read the tab. All you need to do it to open such Here, There And Everywhere tab and you will see it displayed. If you wish, you can download our free tabs in txt.

thetabsbest.com tries to expand tabs database, adding new and hot songs as well as old and beloved melodies, so our archive could suit any person. Also we try to add chords and files for different music instruments, for example, you can find The Beatles acoustic guitar tabs, piano chords or power tabs. Many songs like Here, There And Everywhere have not only Here, There And Everywhere guitar tab type, but provide wide selection of chords and tabs for all instruments. We also try to add more The Beatles Guitar Pro tabs as they can bear data for whole band including sheet music.

Our newest addition - The Beatles lyrics - is viewed the same. Select "lyrics" in the list of the tabs and chords and the text will be displayed on the next page.

File info:


Share it:

Rate it:
Rating: 0
Band nameThe Beatles »
Song nameHere, There And Everywhere »
Tab typeGuitar tab »
Added05/05/2008
Size5.55 Kb
File formattxt
Views/Loads3/5

Sponsored links:
Wrong code.

Text of tab

   
#-----------------------------PLEASE NOTE-------------------------------------#
#This file is the author's own work and represents his interpretation of the  #
#song. You may only use this file for private study, scholarship, or research.#
#Remember to view this file in Courier or some other monospaced font.         #
#-----------------------------------------------------------------------------#

Date: Thu, 21 Nov 2002 12:28:47 -0500
From: Courtney Babbidge 
Subject: b/beatles/here_there_and_everywhere.tab

This is my arrangement of "Here, There, and Everywhere" by
the Beatles. I decided to arrange this for solo classical
guitar because I love the melody, but can^Ňt really do it
justice with my bass/baritone voice. I tried transposing
it to make it easier to sing, but it loses a lot of it^Ňs
luster in lower keys, so here it is...

Here There and Everywhere
Music/lyrics: Lennon/McCartney
Arranged by: Courtney Babbidge (cbm7b5@yahoo.com)

4/4 time

Intro (rubato)

1 & 2 & 3 & 4 & (etc..)
|   |   |   |    |   |   |   |    |   |   |   |    |   |   |   |
| | | | | | | |  | | | | | | | |  | | | | | | | |  | | | | | | | |
----------------|----------------|----------------|----------------|
------------0---|3---0-----------|------------0---|3---0-----------|
0-------0-------|2-------0-------|--------0-------|----------------|
0-------0-------|--------3-------|5-------5-------|4-------5---4---|
2-------2-------|3-------3-------|6-------6-------|5---------------|
3-------3-------|1-------1-------|6-------6-------|----------------|

  |   |   |   |    |   |   |   |    |   |   |   |   |   |   |   |
  | | | | | | | |  | | | | | | | |  | | | | | | | | | | | | | | | |
||----------------|----5-3-----0---|---------------|------0--------|
||------------1---|0-3-------0---3-|------------1--|0-1-3---------0|
|*0-----------0---|2---------0-----|----0-------0--|2---------0-2--|
|*----0-----2---2-|----------------|----0-----2---2|---------------|
||--2---2-0-------|2-------3-------|--2---2-0------|2-------3------|
||3---------------|----------------|3--------------|---------------|

                                                   ________________
                                                  |1.              |
|   |   |   |    |   |   |   |    |   |   |   |    |   |   |   |
| | | | | | | |  | | | | | | | |  | | | | | | | |  | | | | | | | |
----------------|----------------|------2---0-----|----------------||
--1-0-0---------|0-1-0-0---------|----0-----2-----|----------------||
--2---------2---|2-----------2-0-|--2-----------2-|----2-------5-2*||
--2-------1---1-|2---------1-----|----------------|----2-----4----*||
--------2-------|--------2-------|--------0---0---|--3-----5-------||
2---------------|2---------------|0---------------|5-----5---------||

_______________
|2.
|   |   |   |     |   |   |   |   |   |   |   |    |   |   |   |
| | | | | | | |   | | | | | | | | | | | | | | | |  | | | | | | | |
----------------||--1------------|----------------|----------------|
--------------1-||3---3----------|1-3-4-1---------|3-----4-5-4-3---|
----2-----2-3---|*3---3-------5-3|--------2-2-3-5-|--3---------3---|
----2---0-------|*---------------|1-------4-------|----5---------5-|
--3-------------||1-----0---5----|3-------5-------|----5-----------|
5-----5---------||--------3------|----------------|3-------3-------|

                  _____
                 | -3- |
|   |   |   |    |   |   |   |    |   |   |   |    |   |   |   |
| | | | | | | |  | | | | | | | |  | | | | | | | |  | | | | | | | |
----------------|----------------|----5-3-----0---|----------------|
1-3-4-1---------|3--0--------1---|0-3-------0---3-|------------1---|
--------2-2-3-5-|4----0--0---0---|2---------0-----|----0-------0---|
1-------4-------|0---------2---2-|----------------|----0-----2---2-|
3-------5-------|--------0-------|2-------3-------|--2---2-0-------|
----------------|3---------------|----------------|3---------------|

|   |   |   |    |   |   |   |    |   |   |   |    |   |   |   |
| | | | | | | |  | | | | | | | |  | | | | | | | |  | | | | | | | |
------0---------|----------------|----------------|------2---0-----|
0-1-3---------0-|--1-0-0---------|0-1-0-0---------|----0-----2-----|
2---------0-2---|--2---------2---|2-----------2-0-|--2-----------2-|
----------------|--2-------1-----|2---------1-----|----------------|
2-------3-------|--------2-----2-|--------2-------|--------0---0---|
----------------|2---------------|2---------------|0---------------|

________________          _________________
|1.                       |2.
|   |   |   |              |   |   |   |    |   |   |   |
| | | | | | | |            | | | | | | | |  | | | | | | | |
-----------------||       |----------------|----------------|
-----------------||       |----------------|------------0---|
----2-----2-3-5-*||       |------2---------|0---0-------0---|
----2---0-------*||       |----2-------5-4-|----0-----2-----|
--3---3----------||       |--3-----5-5-----|--2-----0-----0-|
5----------------||       |5---------------|3-----3---------|

|   |   |   |    |   |   |   |    |   |   |   |    |   |   |   |
| | | | | | | |  | | | | | | | |  | | | | | | | |  | | | | | | | |
----------------|----------------|----2-3---------|---------------||
3---0-----------|------------0---|3-----------0---|---------------||
2-----0-----0---|0-------0---0---|2-----------0---|0--------------||
--0-------2---2-|----0-----2---2-|--0-------2---2-|0--------------||
2-------3-------|--2-----0-------|2-------3-------|2--------------||
----------------|3-----3---------|----------------|3--------------||

Visit www.directtabs.com for more tabs.


Add comment: