All tabs: 1331485
We love you! Do you like us?
Bands » The Beach Boys » California Girls » Guitar tab

California Girls by The Beach Boys guitar tab

This is the final page that leads you directly to the Guitar Pro tab, drum tab, bass guitar tab, piano chord, etc you've chosen. This page provides information concerning California Girls guitar tab such as its format, type of tab or chord, upload date, number of views, number of downloads and rating of this tab provided by thetabsbest.com users.

If the tab you have selected is a downloadable one (mostly these are The Beach Boys Guitar Pro tabs), you need to insert so called "captcha" code and click "download" button. In case the code is correct you will be redirected to download page where your California Girls gp4 file will be prepared. If you have entered wrong "captcha" code, you will be asked to insert it once again to get your California Girls guitar tab.

If you browse all The Beach Boys tabs or open the list of tabs and chords for California Girls, you can see there are not only Guitar Pro tabs. Guitar tabs and chords, piano & power tabs, drum tabs, bass tabs - they all can be not only in Guitar Pro file format, but also in txt. In this case no special program is needed to read the tab. All you need to do it to open such California Girls tab and you will see it displayed. If you wish, you can download our free tabs in txt.

thetabsbest.com tries to expand tabs database, adding new and hot songs as well as old and beloved melodies, so our archive could suit any person. Also we try to add chords and files for different music instruments, for example, you can find The Beach Boys acoustic guitar tabs, piano chords or power tabs. Many songs like California Girls have not only California Girls guitar tab type, but provide wide selection of chords and tabs for all instruments. We also try to add more The Beach Boys Guitar Pro tabs as they can bear data for whole band including sheet music.

Our newest addition - The Beach Boys lyrics - is viewed the same. Select "lyrics" in the list of the tabs and chords and the text will be displayed on the next page.

File info:


Share it:

Rate it:
Rating: 0
Band nameThe Beach Boys »
Song nameCalifornia Girls »
Tab typeGuitar tab »
Added05/05/2008
Size5.5 Kb
File formattxt
Views/Loads1/0

Sponsored links:
Wrong code.

Text of tab

   

HottestTabs [http://www.hottesttabs.com]

CALIFORNIA GIRLS (Bassline)

As recorded by Beach Boys

(From the 1999 Album VOL. 1 - GREATEST HITS)

Words and Music by Brian Wilson & Mike Love



 



Gtr I (E A D G) - 'Standard'





 Intro

  Moderate Pop/Rock Q=116

 4/4

  Gtr I

  Wx2          Q.   E +E  E Q    E Q  E Q  Q

|------------|-----------------|--------------|

|------------|------6-(6)------|--------------|

|------------|--------------9--|---7--6-------|

|------------|-7----------7----|-7------7--9--|





  Q.   E +E  E Q    E Q  E Q  Q

|-----------------|----------------|

|------6-(6)------|----------------|

|--------------9--|---7--6---------|

|-7----------7----|-7------7--9----|





  Q.   E +E  E Q    E Q  E Q  Q    Q.   E +E  E Q    E Q  E Q  Q

|-----------------|--------------|-----------------|--------------||

|------6-(6)------|--------------|------4-(4)------|--------------||

|--------------9--|---7--6-------|--------------7--|---5--4----4--||

|-7----------7----|-7------7--9--|-5----------5----|-5------5-----||





  Slightly Faster Q=120(8=s8)

  E E E E E E E E   E E E E E E E E

|-----------------|-----------------|

|-----6-------6---|-----6-------6---|

|---9---9---9---9-|---9---9---9---9-|

|-7-------7-------|-7-------7-------|





   1st, 2nd Verses

    $

    E E E E E E E E   E E E E E E E E   E E E E E E E E   E E E E E E E E

||------------------|-----------------|-----------------|------------------|

||o-----6-------6---|-----6-------6---|-----6-------6---|-----6-------6----|

||o---9---9---9---9-|---9---9---9---9-|---9---9---9---9-|---9---9---9---9--|

||--7-------7-------|-7-------7-------|-7-------7-------|-7-------7--------|





  E E E E E E E E   E E E E E E E E   E E E E E E E E

|-----------------|-----------------|-----------------|

|-----------------|-----------------|-----------------|

|---2-4-2---2-4-2-|---2-4-2---2-4-2-|---4-6-4---4-6-4-|

|-0-------0-------|-0-------0-------|-2-------2-------|





  1.                  2.

  E E E E E E E E     Q  E E Q

|------------------||-----------||

|-----------------o||-----------||

|---4-6-4---4-6-4-o||-----------||

|-2-------2--------||-2----2-2--||





 Chorus

  Q  Q  Q  Q    Q  Q  Q  Q    Q  Q  Q  Q    Q  Q  Q  Q

|-------------|-------------|-------------|-------------|

|-------------|-------------|-------------|-------------|

|-------------|-------------|-------------|-------------|

|-7--7--7--7--|-9--9--9--9--|-5--5--5--5--|-7--7--7--7--|





                  To Coda                         D.S. al Coda

  Q  Q  Q  Q    Q  Q  Q  Q    E E E E E E E E   E E E E E E E E

|-------------|-------------|-----------------|-----------------||

|-------------|-------------|-----6-------6---|-----6-------6---||

|-------------|-------------|---9---9---9---9-|---9---9---9---9-||

|-3--3--3--3--|-5--5--5--5--|-7-------7-------|-7-------7-------||





  &

  E E E E E E E E   E E E E E E E E   W          E  E E E  E E E E

|-----------------|-----------------|----------|-------------------||

|-----6-------6---|-----6-------6---|----------|---11---8----------||

|---9---9---9---9-|---9---9---9---9-|----------|----------11-9-7-6-||

|-7-------7-------|-7-------7-------|----------|-------------------||





   Chorus

    E E E E E E E E   E E E E E E E E

||------------------|-----------------|

||o-----6-------6---|-----6-------6---|

||o---9---9---9---9-|---9---9---9---9-|

||--7-------7-------|-7-------7-------|





  E E  E E E E  E E   E  E E E  E E E E   3x

|-------------------|---------------------||

|-------------------|---11---8-----------o||

|---9-11-9---9-11-9-|----------11-9-7-6--o||

|-9--------9--------|-9-------------------||









--------------------------------------------------------------------------------





Duration Legend

---------------

W - whole; H - half; Q - quarter; E - 8th; S - 16th; T - 32nd; X - 64th; a - acciaccatura

+ - note tied to previous; . - note dotted; .. - note double dotted

Uncapitalized letters represent notes that are staccato (1/2 duration)

Irregular groupings are notated above the duration line

Duration letters will always appear directly above the note/fret number it represents the

duration for.  Duration letters with no fret number below them represent rests.  Multi-

bar rests are notated in the form Wxn, where n is the number of bars to rest for.  Low

melody durations appear below the staff



Tablature Legend

----------------

 h   - hammer-on

 p   - pull-off

 b   - bend

 pb  - pre-bend

 r   - bend release (if no number after the r, then release immediately)

 /\  - slide into or out of (from/to "nowhere")

 s   - legato slide

 S   - shift slide

 - natural harmonic

[n]  - artificial harmonic

n(n) - tapped harmonic

 ~   - vibrato

 tr  - trill

 T   - tap

 TP  - trem. picking

 PM  - palm muting

\n/  - tremolo bar dip; n = amount to dip

 \n  - tremolo bar down

 n/  - tremolo bar up

/n\  - tremolo bar inverted dip

 =   - hold bend; also acts as connecting device for hammers/pulls

 <> - volume swell (louder/softer)

 x   - on rhythm slash represents muted slash

 o   - on rhythm slash represents single note slash



Misc Legend

-----------

 |  - bar

||  - double bar

||o - repeat start

o|| - repeat end

*|  - double bar (ending)

 :  - bar (freetime)

 $  - Segno

 &  - Coda

Tempo markers -  = BPM(8/16=s8/s16), where s8 = swing 8ths, s16 = swing 16ths


Add comment: