All tabs: 1331485
We love you! Do you like us?
Bands » The 4 Saints » Half - Man » Guitar tab

Half - Man by The 4 Saints guitar tab

This is the final page that leads you directly to the Guitar Pro tab, drum tab, bass guitar tab, piano chord, etc you've chosen. This page provides information concerning Half - Man guitar tab such as its format, type of tab or chord, upload date, number of views, number of downloads and rating of this tab provided by thetabsbest.com users.

If the tab you have selected is a downloadable one (mostly these are The 4 Saints Guitar Pro tabs), you need to insert so called "captcha" code and click "download" button. In case the code is correct you will be redirected to download page where your Half - Man gp4 file will be prepared. If you have entered wrong "captcha" code, you will be asked to insert it once again to get your Half - Man guitar tab.

If you browse all The 4 Saints tabs or open the list of tabs and chords for Half - Man, you can see there are not only Guitar Pro tabs. Guitar tabs and chords, piano & power tabs, drum tabs, bass tabs - they all can be not only in Guitar Pro file format, but also in txt. In this case no special program is needed to read the tab. All you need to do it to open such Half - Man tab and you will see it displayed. If you wish, you can download our free tabs in txt.

thetabsbest.com tries to expand tabs database, adding new and hot songs as well as old and beloved melodies, so our archive could suit any person. Also we try to add chords and files for different music instruments, for example, you can find The 4 Saints acoustic guitar tabs, piano chords or power tabs. Many songs like Half - Man have not only Half - Man guitar tab type, but provide wide selection of chords and tabs for all instruments. We also try to add more The 4 Saints Guitar Pro tabs as they can bear data for whole band including sheet music.

Our newest addition - The 4 Saints lyrics - is viewed the same. Select "lyrics" in the list of the tabs and chords and the text will be displayed on the next page.

File info:


Share it:

Rate it:
Rating: 0
Band nameThe 4 Saints »
Song nameHalf - Man »
Tab typeGuitar tab »
Added04/30/2008
Size4.15 Kb
File formattxt
Views/Loads2/0

Sponsored links:
Wrong code.

Text of tab

   
PM= Palm mute.

Harm= Put figer lightly on the string

BU= Bend Up











the Intro is on drums



Clean tone 

verse 1   x4

|--------------------------------------------------------------------------------------------------------------|

|--------------------------------------------------------------------------------------------------------------|

|--------------------------------------------------------------------------------------------------------------|

|------9------5------7------7------5------9--------------------------------------------------------------------|

|------9------5------7------7------5------9--------------------------------------------------------------------|

|--00--7--00--3--00--5--00--5--00--3--00--7--------------------------------------------------------------------|

   pm     ..     ..     ..     ..     ..

Verse 2   x1

distorted pm           .          .    

|--------------------------------------------------------------------------------------------------------------|

|--------------------------------------------------------------------------------------------------------------|

|--------------------------------------------------------------------------------------------------------------|

|--------------------------------------------------------------------------------------------------------------|

|-----------7-----------8----------7---------------------------------------------------------------------------|

|--77777777-7--77777777-8-77777777-7---------------------------------------------------------------------------|

   harm....    ........   ........

Chorus    x3

 distorted

|----------------------------------------------------------------------------------------------------------------|

|----------------------------------------------------------------------------------------------------------------|

|----------------------------------------------------------------------------------------------------------------|

|----------------------------------------------------------------------------------------------------------------|

|--------9999-----555----777------------7777------555-----999------------9999----777---555---------5555--777--999|

|--0000--7777-----333----555------0000--5555------333-----777-----0000---7777----555---333---0000--3333--555--777|

                  pm.    ...                      ...     ...                    ...   ...               ...  ...



verse 3

clean tone

|---------------------------------------------------------------------------------------------------------------|

|---------------------------------------------------------------------------------------------------------------|

|---------------------------------------------------------------------------------------------------------------|

|------9------7------5------5------7------9---------------------------------------------------------------------|

|------9------7------5------5------7------9---------------------------------------------------------------------|

|--00--7--00--5--00--3--00--3--00--5--00--7---------------------------------------------------------------------|

   pm     ..     ..     ..     ..     ..



when the other plays the solo the oher one plays this:

|---------------------------------------------------------------------------------------------------------------|

|---------------------------------------------------------------------------------------------------------------|

|---------------------------5-------------------------4---------------------------------------------------------|

|---------------------------5-------------------------4---------------------------------------------------------|

|---------------------------5-------------------------4---------------------------------------------------------|

|---3333333333333333333333--5--222222222222222222222--4---------------------------------------------------------|

    Harm..................     .....................

Plays until the solo is done

And when it is done you play this:



|------------|

|------------|

|--3-5BU-----|

|--3---------|

|--3---------|

|--3---------|


Add comment: