All tabs: 1331485
We love you! Do you like us?
Bands » Rush » 2112 Live » Guitar tab

2112 Live by Rush guitar tab

This is the final page that leads you directly to the Guitar Pro tab, drum tab, bass guitar tab, piano chord, etc you've chosen. This page provides information concerning 2112 Live guitar tab such as its format, type of tab or chord, upload date, number of views, number of downloads and rating of this tab provided by thetabsbest.com users.

If the tab you have selected is a downloadable one (mostly these are Rush Guitar Pro tabs), you need to insert so called "captcha" code and click "download" button. In case the code is correct you will be redirected to download page where your 2112 Live gp4 file will be prepared. If you have entered wrong "captcha" code, you will be asked to insert it once again to get your 2112 Live guitar tab.

If you browse all Rush tabs or open the list of tabs and chords for 2112 Live, you can see there are not only Guitar Pro tabs. Guitar tabs and chords, piano & power tabs, drum tabs, bass tabs - they all can be not only in Guitar Pro file format, but also in txt. In this case no special program is needed to read the tab. All you need to do it to open such 2112 Live tab and you will see it displayed. If you wish, you can download our free tabs in txt.

thetabsbest.com tries to expand tabs database, adding new and hot songs as well as old and beloved melodies, so our archive could suit any person. Also we try to add chords and files for different music instruments, for example, you can find Rush acoustic guitar tabs, piano chords or power tabs. Many songs like 2112 Live have not only 2112 Live guitar tab type, but provide wide selection of chords and tabs for all instruments. We also try to add more Rush Guitar Pro tabs as they can bear data for whole band including sheet music.

Our newest addition - Rush lyrics - is viewed the same. Select "lyrics" in the list of the tabs and chords and the text will be displayed on the next page.

File info:


Share it:

Rate it:
Rating: 0
Band nameRush »
Song name2112 Live »
Tab typeGuitar tab »
Added06/24/2008
Size22.29 Kb
File formattxt
Views/Loads1/4

Sponsored links:
Wrong code.

Text of tab

   




I - Overture



                                                                       

      

|---|-----|-----------|----------|--------|--------------------|

|---|-----|-----------|----------|--------|--------------------|

|---|-----|---3--5--3-|-0-0------|-------3|--------------------|

|---|0-5--|-------3---|----------|-------0|--5--------3-----0--|



                                                                       

   

---------------------------------------------------------------------------

|9:---R-------|-----------|4:---R-----|---R-----|9:----------|7:-----|

|8:-------3---|-5-3---5---|4:-------3-|---------|8:-------3---|8:-5---|

+---5-------3-+-----3---0-+---5-------+-3-----0-+---5-------3-+-----0-+



                                                                           

    

+-----------+---------+-----------------+-------------+---4-----------4---+

|4:---R-----|---R-----|9:---R-----R-----|7:-----------|4:---R-7-R-5-R---R-|

|4:-------3-|---------|8:-------5---3---|8:-5-3---5-5-|4:-----------------|

+---5-------+-3-----0-+---5---3-------3-+-------3-----+-------------------+



                                                                               

   

-------------------------------------------------------------------------------------

|2:-----|4:---|----|-5-R-7-R-5-R-4-R-|2:-----|4:---|--------R-|-R-|-R-|-R-|-R-|

|4:-5-0-|4:-5-|--5-|-----------------|4:-7-4-|4:---|----7X---|---|---|---|---|

+-------+-----+----+-----------------+-------+---5-+--5-------+---+---+---+---+



                                                                     

   

------------------------------------------------------------------

|-----------------|-----------------|---------------|---------------|

|-2-1-2-1-2-1-2-0-|-------------5-4-|---------7-5-4-|-2-1-2-1-2-5-5-|

+-----------------+-3-2-3-2-3-2-----+-5-4-5-4-------+---------------+



                                                                     

  

---------------------------------------------------------------------

|-----------------|-----------------|---------------|---------------|

|-2-1-2-1-2-1-2-0-|-------------5-4-|---------7-5-4-|-2-1-2-1-2-5-5-|

+-----------------+-3-2-3-2-3-2-----+-5-4-5-4-------+---------------+



                                                                      

  

-----------------------------------------------------------------------------

|-----------|-----------|-----------|-----------------|----|----|----|

|-2-2-2-2-0-|-------5-4-|-----7-5-4-|-2---------------|----|----|----|

+-----------+-3-3-3-----+-5-5-------+---0-2-3-5-3-0-5-+--5-+--5-+--5-+



                                                                        



----------------------------------------------------------------------------

|---------------|----|----|----|---------------|--------7-7-|--7-7H9P7-|

|---------------|----|----|----|---------------|----4-4-----|----------|

+-0-2-3-5-3-0-5-+--5-+--5-+--5-+-0-2-3-5-3-0-5-+--5---------+----------+



                                                                               

 

-----------------------------------------------------------------------------------

|--7-7H9P7-|---------------|--------7-7-|--7-7H9P7-|--7-7H9P7-|3:-------------|

|----------|---------------|----4-4-----|----------|----------|4:-------------|

+----------+-0-2-3-5-3-0-5-+--5---------+----------+----------+---0-2-3-5-3-0-+



                                                                               

   

-------------------------------------------------------------------------------------

|4:---R-----R-9-|-9-R-|---R-----|---R-----|---R-----|---------R-9X-|---R-----|

|4:-2---6-6-----|-----|-2---2-0-|---------|---------|-5-4-0-2-------|-2---2-0-|

+---------------+-----+---------+-3---2-3-+-5---3-5-+---------------+---------+



                                                                         

 

-----------------------------------------------------------------------------

|---R-----|---R-----|2:-------|*---R---|----R---|----R---|-R-------*|---|

|---------|---------|4:-5-4-0-|*-2---2-|--2---2-|--2-----|---5---7-*|---|

+-3---2-3-+-5---3-5-+---------+--------+--------+--------+-----5----+-5-+



                                                                  

 

-----------------------------------------------------------------------

|-------|-------|-------R-------|*---2-----|-------------|-------|

|-3-3-5-|-------|---------3---3-|*-0---0-2-|-3-2-3-2-----|-------|

+-------+-1-1-1-+-1-1-1-----3---+----------+---------3-2-+-1-0-1-+



                                                                      

  

---------------------------------------------------------------------

|-------------*|---2-----|-------------|-----------|-----------R---R-|

|-------3---3-*|-0---0-2-|-3-2-3-2-----|-----------|-------------3---|

+-1-0-1---3----+---------+---------3-2-+-1-1-1-1-1-+-1-1-1-1-1-------+



   

-------------------------------------------------------------------

|-------------R---R-|-------------R---R-|-------------R---R-|

|-2-2-2-2-2-2---5---|-2-2-2-2-2-2-------|-2-2-2-2-2-2---5---|

+-------------------+---------------3---+-------------------+



                                                             

--------------------------------------------------------------

|-------------R---R-|-------------R---R-|-------------R---R-|

|-2-2-2-2-2-2-------|-2-2-2-2-2-2---5---|-2-2-2-2-2-2-------|

+---------------3---+-------------------+---------------3---+



                                                                             

    

-------------------------------------------------------------------------------------

|-------------R---R-|-------------------|-------------------|------------|

|-2-2-2-2-2-2---5---|-2-2-2-2-2-2-4-5-6-|---7-----7---5-----5-|-3-2-3-2-3---|

+-------------------+-------------------+-----7-7-------5-5---+-------------+



                                                                             

  

+-------------------+-------------------+---------------------+---------5-4----

|---------------|-----------------|-------------------|-----5-4---------------------

|-2-2-2-2-2-2---5---|-2-2-2-2-2-2-------|---7-----7--5-----5-|---------------

|-0---0-2-|-3-2-3-----|---------|-------3-----|*-0---0-2-|-3-2-3-----|---------|

+---------+-----------+---------+---------3---+----------+-------3-2-+-1-0-1-0

+-------------------+---------------3---+-----7-7-----5--5--------------------



                                                             

 

------------------------------------------------------------------

|-------------R---R-|-------------R---R-|-------------R---R-|

|-2-2-2-2-2-2---5---|-2-2-2-2-2-2-------|-2-2-2-2-2-2---5---|

+-------------------+---------------3---+-------------------+



                                                                 

  

+-------------------------------------------------------------------

|-------------R---R-|-------------------2-|---------------------|

|-2-2-2-2-2-2-------|-2-2-2-2-2-2-2-4-5---|-2-2-2-2-2-2-2-------|

+---------------3---+---------------------+---------------5-3-2-+



                                                                     



----------------------------------------------------------------------------

|-------------------2-|3:-----------------|9:---------|7:-----------|

|-2-2-2-2-2-2-2-4-5---|4:-2-2-2-2-2-2-2-2-|8:-----3---|8:-5-3---5---|

+---------------------+-------------------+---3-----3-+-------3---3-+



                                                                        



-----------------------------------------------------------------------------

|4:---------------------|---------------------|---|--------------------------

|4:---------------------|---------------------|---|------|---|---|-------------

+---0-0-0-0-0-0-0-0-0-0-+-0-0-0-0-0-0-0-0-0-0-+-0-+--0-------





 II - The Temples of Syrinx







+---+--------------------+---------------+-----------------+--------+

|---|*4:-----------------|---------------|-----------------|-------*|

|---|*4:---------------3-|-------3---5---|---------------3-|-------*|

+-0-+----5-5-5-0-5-5-5---+-3-3-3---3---0-+-5-5-5-0-5-5-5---+-3---0--+



                                                                               

  

------------------------------------------------------------------------------------

-----------------------------------------------------------------------------------

|---------------3-|-------3---5---|---------------3-|-------|---------------3-|

+-5-5-5-0-5-5-5---+-3-3-3---3---0-+-5-5-5-0-5-5-5---+-3---0-+-5-5-5-0-5-5-5---+



                                                                         



+---------------+-----------------+-----------------+-------------------+

|---------------|-----------------|-----------------|*------------------|

|-------3---5---|---------------3-|---------------2-|*--2-1-2-1-2-------|

+-3-3-3---3---0-+-5-5-5-0-5-5-5---+-3-0-2-3-5-3-0---+-------------0-2-3-+



                                                                              

  

+------------------+------------------+-------------------+------------------+

|------------------|------------------|------------------*|------------------|

|------------------|----------------2-|--2-------------2-*|--2-1-2-1-2-------|

+--3-2-3-2-3-2-3-5-+--5-4-5-4-5-4-5---+----0-2-3-5-3-0----+------------0-2-3-+



                                                                                

  

+------------------+------------------+------------------+---------------------+

|------------------|------------------|----------------R-|---------------R---R-|

|------------------|----------------2-|--2-----------5---|-2-2-2-2-2-2-2---5---|

+--3-2-3-2-3-2-3-5-+--5-4-5-4-5-4-5---+----0-2-3-5-3-----+---------------------+



                                                                       



+---------------------+---------------------+-------------------+-----+

|---------------R---R-|---------------R---R-|3:---------------R-|4:---|

|-2-2-2-2-2-2-2-------|-2-2-2-2-2-2-2---5---|4:-2-2-2-2-2-2-2---|4:---|

+-----------------3---+---------------------+-------------------+---3-+



                                                                               

  

+-----------------+-----------------+---------------+-----------------+-------+

|-----------------|-----------------|---------------|-----------------|-------|

|-----------------|---------------3-|-------3---5---|---------------3-|-------|

+-3-3-3-3-3-3-3-0-+-5-5-5-0-5-5-5---+-3-3-3---3---0-+-5-5-5-0-5-5-5---+-3---0-+



                                                                       

  

+-----------------+---------------+-----------------+-----------------+

|-----------------|---------------|-----------------|-----------------|

|---------------3-|-------3---5---|---------------3-|---------------2-|

+-5-5-5-0-5-5-5---+-3-3-3---3---0-+-5-5-5-0-5-5-5---+-3-0-2-3-5-3-0---+



                                                                               

   

+-------------------+------------------+------------------+-------------------+

|*------------------|------------------|------------------|------------------*|

|*--2-1-2-1-2-------|------------------|----------------2-|--2-------------2-*|

+-------------0-2-3-+--3-2-3-2-3-2-3-5-+--5-4-5-4-5-4-5---+----0-2-3-5-3-0----+



                                                                             



+------------------+------------------+------------------+------------------+

|------------------|------------------|------------------|----------------R-|

|--2-1-2-1-2-------|------------------|----------------2-|--2-----------5---|

+------------0-2-3-+--3-2-3-2-3-2-3-5-+--5-4-5-4-5-4-5---+----0-2-3-5-3-----+



                                                                   

  

+---------------------+---------------------+---------------------+

|---------------R---R-|---------------R---R-|---------------R---R-|

|-2-2-2-2-2-2-2---5---|-2-2-2-2-2-2-2-------|-2-2-2-2-2-2-2---5---|

+---------------------+-----------------3---+---------------------+



                           



+-------------------+-----+

|3:---------------R-|4:---|

|4:-2-2-2-2-2-2-2---|4:---|

+-------------------+---3-+







III-Presentation





                                                                             



+-----------+-----------+-----------+-----------------+---------+-----------+

|4:-------7-|-7-5-4-----|-----------|-R-5-R-4-R-5-----|-------7-|-7-5-4-----|

|4:---4-4---|-------7-6-|-5---5---5-|-------------5-7-|---4-4---|-------7-6-|

+---5-------+-----------+---5---5---+-----------------+-5-------+-----------+



                                                                         



+---------------+-----------------+-----------+-------4-----+-----------+

|---------------|-R-5-R-4-R-5-----|-----R---R-|-4---R---7---|-----R---R-|

|-5---5---5---5-|-------------5-7-|-----------|---7-------7-|-----------|

+---5---5---5---+-----------------+-5-7---7---+-------------+-5-7---7---+



                                                                               



+-9-6-4-----------+-----------+-------4-----+-----------+-11-9----------------+

|-------R-7-4-----|-----R---R-|-4---R---7---|-----R---R-|------11-9-7---------|

|-------------7-4-|-----------|---7-------7-|-----------|-------------9-7-----|

+-----------------+-5-7---7---+-------------+-5-7---7---+-----------------9-7-+



                                                               



+--------+------------------+---------+-----------+-----------+

|*-------|-R-5-4-6-6H7P6---*|-------7-|-7-5-4-----|-----------|

|*---5---|---------------7-*|---4-4---|-------7-6-|-5---5---5-|

+--5-----+------------------+-5-------+-----------+---5---5---+



                                                                             



+-----------------+---------------+-----------+-----------+-----------------+

|-R-5-R-4-R-5-----|-------------7-|-7-5-4-----|-----------|-R-5-R-4-R-5-----|

|-------------5-7-|---4-4-4-4-4---|-------7-6-|-5---5---5-|-------------5-7-|

+-----------------+-5-------------+-----------+---5---5---+-----------------+



                                                                         

  Q

+-----------+-------------+-----------+-----------------+---------------+

|-------7-7-|-7-9-7-5-4---|-------R---|-R-5-R-4-R-5-----|-----------7-7-|

|---4-4-----|-----------7-|-5---5---5-|-------------5-7-|-------4-4-----|

+-5---------+-------------+---5-------+-----------------+-5-5-5---------+



                                                                               



+---------------------+-----------+-----------------+-----------+-------4-----+

|-7-7-7-7-5-5-5-4-----|-----------|-R-5-R-4-R-5-----|-----R---R-|-4---R---7---|

|-----------------7-6-|-5---5---5-|-------------5-7-|-----------|---7-------7-|

+---------------------+---5---5---+-----------------+-5-7---7---+-------------+



                                                                        



+-----------+-9-6-4-----------+-----------+-------4-----+---------9H11-+

|-----R---R-|-------R-7-4-----|-----R---R-|-4---R---7---|-----R--------|

|-----------|-------------7-4-|-----------|---7-------7-|--------------|

+-5-7---7---+-----------------+-5-7---7---+-------------+-5-7---7------+



                                                                            



+-P9--------------------+--------+------------------+----------+-----------+

|----11-9-7-9P7---------|*-------|-R-5-4-6-6H7P6---*|*-------7-|-7-5-4-----|

|---------------9-7-----|*---5---|---------------7-*|*---4-4---|-------7-6-|

+-------------------9-7-+--5-----+------------------+--5-------+-----------+



                                                                          



--------------------------------------------------------------------------------

|-----------|-R-5-R-4-R-5-----*|-------7-|-7-5-4-----|-----------|---R---|

|-5---5---5-|-------------5-7-*|---4-4---|-------7-6-|-5---5---5-|-----2-|

+---5---5---+------------------+-5-------+-----------+---5---5---+-3-----+



                                                                               

------------------------------------------------------------------------------

|*------------------|------------------|------------------|------------------*|

|*--2-1-2-1-2-------|------------------|----------------2-|--2-------------2-*|

+-------------0-2-3-+--3-2-3-2-3-2-3-5-+--5-4-5-4-5-4-5---+----0-2-3-5-3-0----+



                                                                            

  

---------------------------------------------------------------------------

|-----------------|------------------|------------------|------------------|

|-2-1-2-1-2-------|------------------|----------------2-|--2-------------5-|

+-----------0-2-3-+--3-2-3-2-3-2-3-5-+--5-4-5-4-5-4-5---+----0-2-3-5-3-0---+



      





|----|

|--5-|

+----+



 V - Soliloquy





-------------------------------------------------------------------------

-------------------------------------------------------------------------

-------------------------------------------------------------------------

-------------------------------------------------------------------------



                                                                            

  

-----------------------------------------------------------------------------

|----|----|----|4:-R-----R-|*---2-----|-----------|---------|-----------R-*|

|----|----|----|4:---3-----|*-0---0-2-|-3-2-3-----|---------|-------3-----*|

+----+----+----+-------3---+----------+-------3-2-+-1-0-1-0-+-1-0-1---3----+





-----------------------------------------------------------------------------|

---2-----|-------5-4-|-3-2-3-2-|-3-2-3------|*---2-----|-----------|---------|

|-0---0-2-|-3-2-3-----|---------|-------3-----|*-0---0-2-|-3-2-3-----|---------|

+---------+-----------+---------+---------3---+----------+-------3-2-+-1-0-1-0-+



                                                                        

  

-----------------------------------------------------------------------------

|-----------R-*|---2-----|-------5-4-|-3-2-3-2-|-3-2-3-----R-|---2-----|

|-------3-----*|-0---0-2-|-3-2-3-----|---------|-------3-----|-0---0-2-|

+-1-0-1---3----+---------+-----------+---------+---------3---+---------+



                                                   

  

------------------------------------------------------

|-----------5-|-3-3-3-3-3-3-|-3-3-3-3---------|---|

|-3-2-3-2-3---|-------------|---------3-3-----|---|

+-------------+-------------+-------------1-1-+-0-+



 VI - Grand Finale







---------------------------------------------------------------------

|4:-R-|----|----|----|---------|---------|-----------|-----------|

|4:---|----|----|----|-----7---|-----7---|---7---7---|-7---7---7-|

+-----+----+----+----+-0-0---0-+-0-0---0-+-0---0---0-+---0---0---+





------------------------------------------------------------------------------

------------------------------------------------------------------------------

|*---7-----7---|-5-4-----5-7-*|---7-----7---|-5-4-----5---|-7-7-7-7-7-7-7-7-|

+--0---0-0---0-+-----5--------+-0---0-0---0-+-----5-------+-----------------+





+-----------------+-----+-------+---------+-------+---------+-------------+

|-----------------|-----|---R---|6:---R---|---R---|---9---7-|-------------|

|-5-5-5-5-5-5-5-5-|-7-5-|-3-----|8:-2-----|-2-----|-7---5---|-3-2-3-3-3-3-|

---------------------------------------------------------------------------------



                                                                             



+---------------+---------------+-----9-----7-+---5-4-2-----+---------------+

|---------------|---------------|---9-----7---|---------5-2-|---------------|

|-2-0-2-0-2-0-2-|-2-0-2-0-2-0-2-|-7-----5-----|-3-----------|-2-0-2-0-2-0-2-|

--------------------------------------------------------------------------------



                                                                             

  

-------------------------------9-7----------------------------------------

|---------------|---9-----7---|-----------5-|---------------|---------------|

|-2-0-2-0-2-0-2-|-7-----5---------------3-2-3---5-3-|-2-0-2-0-2-0-2-|-2-0-2-0-2-0-2-|

---------------------------------------------------------------------------------------



                                                                             

  

+---------6-7-9---------4-5-7-+-------------+---------------+---------------+

|---6-7-9---------4-5-7-------|-------2-----|---------------|---------------|

|-7-------------5-------------|-3-2-3---5-3-|-2-0-2-0-2-0-2-|-2-0-2-0-2-0-2-|

-----------------------------------------------------------------------------------





+-----9-----7-+-5-4-2-------+---------------+---------------+---------+

|---9-----7---|-------5-2---|---------------|---------------|---9---7-|

|-7-----5-----|-----------3-|-2-0-2-0-2-0-2-|-2-0-2-0-2-0-2-|-7---5---|

---------------------------------------------------------------------------

                                                                           



------------------------------------------------9-----7----5-4-2-----

|-------------|---------------|---------------|---9-----7---|---------5-2-|

|-3-2-3-2-3-2-|-2-0-2-0-2-0-2-|-2-0-2-0-2-0-2-|-7-----5-----|-3-----------|

--------------------------------------------------------------------------------



                                                                               

  

------------------------------------------------------------------------------------

|---------------|---------------|---------------|-----|-----|-----|-2-5-|-----|

|-2-0-2-0-2-0-2-|-2-0-2-0-2-0-2-|-2-0-2-0-2-0---|-----|---2-|-3-5-|-----|-----|

-------------------------------------------3--2-3--5---------------------2--3



                                                                             



+-----+-------------+-------------+------------------+------------------+---+

|-----|-------------|-------------|*-4-4-4-2-4-4-4-2-|-4-4-4-2-4-4-4-2-*|-4-|

|---2-|-------2-3-5-|-------2-3-5-|*-----------------|-----------------*|---|





Add comment: