All tabs: 1331485
We love you! Do you like us?

Feel Good Hit Of The Summer by Queens Of The Stone Age guitar tab

This is the final page that leads you directly to the Guitar Pro tab, drum tab, bass guitar tab, piano chord, etc you've chosen. This page provides information concerning Feel Good Hit Of The Summer guitar tab such as its format, type of tab or chord, upload date, number of views, number of downloads and rating of this tab provided by thetabsbest.com users.

If the tab you have selected is a downloadable one (mostly these are Queens Of The Stone Age Guitar Pro tabs), you need to insert so called "captcha" code and click "download" button. In case the code is correct you will be redirected to download page where your Feel Good Hit Of The Summer gp4 file will be prepared. If you have entered wrong "captcha" code, you will be asked to insert it once again to get your Feel Good Hit Of The Summer guitar tab.

If you browse all Queens Of The Stone Age tabs or open the list of tabs and chords for Feel Good Hit Of The Summer, you can see there are not only Guitar Pro tabs. Guitar tabs and chords, piano & power tabs, drum tabs, bass tabs - they all can be not only in Guitar Pro file format, but also in txt. In this case no special program is needed to read the tab. All you need to do it to open such Feel Good Hit Of The Summer tab and you will see it displayed. If you wish, you can download our free tabs in txt.

thetabsbest.com tries to expand tabs database, adding new and hot songs as well as old and beloved melodies, so our archive could suit any person. Also we try to add chords and files for different music instruments, for example, you can find Queens Of The Stone Age acoustic guitar tabs, piano chords or power tabs. Many songs like Feel Good Hit Of The Summer have not only Feel Good Hit Of The Summer guitar tab type, but provide wide selection of chords and tabs for all instruments. We also try to add more Queens Of The Stone Age Guitar Pro tabs as they can bear data for whole band including sheet music.

Our newest addition - Queens Of The Stone Age lyrics - is viewed the same. Select "lyrics" in the list of the tabs and chords and the text will be displayed on the next page.

File info:


Share it:

Rate it:
Rating: 0
Band nameQueens Of The Stone Age »
Song nameFeel Good Hit Of The Summer »
Tab typeGuitar tab »
Added06/12/2008
Size2.78 Kb
File formattxt
Views/Loads1/0

Sponsored links:
Wrong code.

Text of tab

   








Intro				   >h<(From 0)

G--------------------------------------------------------------------

D--------------------------------------------------------------------

A-111-11-1-11-111-111-11-1-01-111-111-11>1<11-111-111-11-1-11-111----

E--------------------------------------------------------------------

  1 + 2 + 3 + 4 + 1 + 2 + 3 + 4 + 1 + 2 + 3 + 4 + 1 + 2 + 3 + 4 +



Verse X1

G--------------------------------------------------------------------

D--------------------------------------------------------------(0)---

A-111-11-1-11-111-111-11-1-11-111-111-11-1-11-111-111-11-1-11-115~---

E--------------------------------------------------------------------

  1 + 2 + 3 + 4 + 1 + 2 + 3 + 4 + 1 + 2 + 3 + 4 + 1 + 2 + 3 + 4 +



Chorus X1

G--------------------------------------------------------------------

D------------(0)---------------------------------------------(0)-----

A-1-1-1-1-1-1-5~--1-1-1-1-1-1-1-1-1-1-1-1-1-1-1-1-1-1-1-1-1-1-5~-----

E--------------------------------------------------------------------

  1 + 2 + 3 + 4 + 1 + 2 + 3 + 4 + 1 + 2 + 3 + 4 + 1 + 2 + 3 + 4 +



G--------------------------------------------------------------------

D--------------------------------------------(0)---------------------

A-1-1-1-1-1-1-1-1-1-1-1-1-1-1-1-1-1-1-1-1-1-1-5~--1-1-1-1-1-1-1-1----

E--------------------------------------------------------------------

  1 + 2 + 3 + 4 + 1 + 2 + 3 + 4 + 1 + 2 + 3 + 4 + 1 + 2 + 3 + 4 +



G---------------------------------

D----------------------------(0)--

A-1-1-1-1-1-1-1-1-1-1-1-1-1-1-5~--

E---------------------------------

  1 + 2 + 3 + 4 + 1 + 2 + 3 + 4 + 



Pre Solo

G---------------------------------

D---------------------------------

A-111-11-1-11-111-111-11-1-11-111-

E---------------------------------

  1 + 2 + 3 + 4 + 1 + 2 + 3 + 4 + 



Solo

G------------------------------------------------

D------------------------------------------------

A-4-4-4-4-4-4-4-4-4-4-4-4-4-4-4-4-55—-66—-77--88-

E------------------------------------------------

  1 + 2 + 3 + 4 + 1 + 2 + 3 + 4 + 1 + 2 + 3 + 4 + 



Then there’s that long bit where they just say the verse over and over again and it’s the same as the first verse but it’s just longer but it still ends with an A. Then it goes back to the chorus but don’t do the last Cocaine bit he just does 3.



Outro: Do this a lot then end on A

G--------------------------------------------------------------------

D--------------------------------------------------------------------

A-1-1-1-1-1-1-1-1-1-1-1-1-1-1-1-1-1-1-1-1-1-1-1-1-1-1-1-1-1-1-1-1----

E--------------------------------------------------------------------

  1 + 2 + 3 + 4 + 1 + 2 + 3 + 4 + 1 + 2 + 3 + 4 + 1 + 2 + 3 + 4 +





Add comment: