All tabs: 1331485
We love you! Do you like us?
Bands » Pink Floyd » Wish You Were Here » Bass tab

Wish You Were Here by Pink Floyd bass tab

This is the final page that leads you directly to the Guitar Pro tab, drum tab, bass guitar tab, piano chord, etc you've chosen. This page provides information concerning Wish You Were Here bass tab such as its format, type of tab or chord, upload date, number of views, number of downloads and rating of this tab provided by thetabsbest.com users.

If the tab you have selected is a downloadable one (mostly these are Pink Floyd Guitar Pro tabs), you need to insert so called "captcha" code and click "download" button. In case the code is correct you will be redirected to download page where your Wish You Were Here gp4 file will be prepared. If you have entered wrong "captcha" code, you will be asked to insert it once again to get your Wish You Were Here bass tab.

If you browse all Pink Floyd tabs or open the list of tabs and chords for Wish You Were Here, you can see there are not only Guitar Pro tabs. Guitar tabs and chords, piano & power tabs, drum tabs, bass tabs - they all can be not only in Guitar Pro file format, but also in txt. In this case no special program is needed to read the tab. All you need to do it to open such Wish You Were Here tab and you will see it displayed. If you wish, you can download our free tabs in txt.

thetabsbest.com tries to expand tabs database, adding new and hot songs as well as old and beloved melodies, so our archive could suit any person. Also we try to add chords and files for different music instruments, for example, you can find Pink Floyd acoustic guitar tabs, piano chords or power tabs. Many songs like Wish You Were Here have not only Wish You Were Here bass tab type, but provide wide selection of chords and tabs for all instruments. We also try to add more Pink Floyd Guitar Pro tabs as they can bear data for whole band including sheet music.

Our newest addition - Pink Floyd lyrics - is viewed the same. Select "lyrics" in the list of the tabs and chords and the text will be displayed on the next page.

File info:


Share it:

Rate it:
Rating: 0
Band namePink Floyd »
Song nameWish You Were Here »
Tab typeBass tab »
Added06/10/2008
Size1.63 Kb
File formattxt
Views/Loads5/1

Sponsored links:
Wrong code.

Text of tab

   
Artist:	Pink Floyd
Title:	Wish You Were Here (correct Version)










intro/ending

G-------------------------------------
D-----------------------5-------------
A-------------5--7---7-----7---5------  X2
E----3--5-h7-------------------------


G----------------------------------------------------------------------------------
D----------------------------------------------------------------------------------
A------------5--7---7--5------------------5--7---7--5------------------------------
E---3--5-h7---------------7--5---5--5-h7---------------7--5----5--5-h7--5--3-------

verse/chorus 
G----------------------------------------------------------------------------------
D----------------------------------------------------------------------------------
A---3---3----5---5---------------------------5----5-----3----3---------------------
E----------------------5----5-----3----3-------------------------5----5-----3----3-


for the verse and chorus I just play along with the guitar. If you wanna hit the chords 
more than twice each time, go crazy. I usually just hit them twice each chord.
Ive played along with the song and this is how it sounds......enjoy


Add comment: