All tabs: 1331485
We love you! Do you like us?

The Happiest Days Of Our Lives by Pink Floyd bass tab

This is the final page that leads you directly to the Guitar Pro tab, drum tab, bass guitar tab, piano chord, etc you've chosen. This page provides information concerning The Happiest Days Of Our Lives bass tab such as its format, type of tab or chord, upload date, number of views, number of downloads and rating of this tab provided by thetabsbest.com users.

If the tab you have selected is a downloadable one (mostly these are Pink Floyd Guitar Pro tabs), you need to insert so called "captcha" code and click "download" button. In case the code is correct you will be redirected to download page where your The Happiest Days Of Our Lives gp4 file will be prepared. If you have entered wrong "captcha" code, you will be asked to insert it once again to get your The Happiest Days Of Our Lives bass tab.

If you browse all Pink Floyd tabs or open the list of tabs and chords for The Happiest Days Of Our Lives, you can see there are not only Guitar Pro tabs. Guitar tabs and chords, piano & power tabs, drum tabs, bass tabs - they all can be not only in Guitar Pro file format, but also in txt. In this case no special program is needed to read the tab. All you need to do it to open such The Happiest Days Of Our Lives tab and you will see it displayed. If you wish, you can download our free tabs in txt.

thetabsbest.com tries to expand tabs database, adding new and hot songs as well as old and beloved melodies, so our archive could suit any person. Also we try to add chords and files for different music instruments, for example, you can find Pink Floyd acoustic guitar tabs, piano chords or power tabs. Many songs like The Happiest Days Of Our Lives have not only The Happiest Days Of Our Lives bass tab type, but provide wide selection of chords and tabs for all instruments. We also try to add more Pink Floyd Guitar Pro tabs as they can bear data for whole band including sheet music.

Our newest addition - Pink Floyd lyrics - is viewed the same. Select "lyrics" in the list of the tabs and chords and the text will be displayed on the next page.

File info:


Share it:

Rate it:
Rating: 0
Band namePink Floyd »
Song nameThe Happiest Days Of Our Lives »
Tab typeBass tab »
Added06/10/2008
Size1.53 Kb
File formattxt
Views/Loads2/1

Sponsored links:
Wrong code.

Text of tab

   
The Happiest Days of Our Lives - Pink Floyd

After the Helecopter Intro-

G|-----------------------------------------------------------------------------------|
D|-----------------------------------------------------------------------------------|
A|-5-----5-----5-----5--3--1--------------------------------------------------3------|
E|----------------------------5--3---3---3---3---3-5---3-5---3-5---3-5---3-5------3-5|

G|-----------------------------------------------------------------------------------|
D|----------------------------------------------0-0-0-0------------------------------|
A|------------------------------------------------------3-0-1-1-1-1-0---------3------|
E|--3-5--5/1--1/5--5/0--3-5---3-5---3-5---3-5-------------------------3-3-3-3--------|

He uses delay when he plays the song, so in the song it will sound like that there are a lot 
more notes being played than shown here. for any corrections e-mail me at viperdriver72@aol.com. 
Thanx


Add comment: