All tabs: 1331485
We love you! Do you like us?
Bands » Pink Floyd » Comfortably Numb » Guitar tab

Comfortably Numb by Pink Floyd guitar tab

This is the final page that leads you directly to the Guitar Pro tab, drum tab, bass guitar tab, piano chord, etc you've chosen. This page provides information concerning Comfortably Numb guitar tab such as its format, type of tab or chord, upload date, number of views, number of downloads and rating of this tab provided by thetabsbest.com users.

If the tab you have selected is a downloadable one (mostly these are Pink Floyd Guitar Pro tabs), you need to insert so called "captcha" code and click "download" button. In case the code is correct you will be redirected to download page where your Comfortably Numb gp4 file will be prepared. If you have entered wrong "captcha" code, you will be asked to insert it once again to get your Comfortably Numb guitar tab.

If you browse all Pink Floyd tabs or open the list of tabs and chords for Comfortably Numb, you can see there are not only Guitar Pro tabs. Guitar tabs and chords, piano & power tabs, drum tabs, bass tabs - they all can be not only in Guitar Pro file format, but also in txt. In this case no special program is needed to read the tab. All you need to do it to open such Comfortably Numb tab and you will see it displayed. If you wish, you can download our free tabs in txt.

thetabsbest.com tries to expand tabs database, adding new and hot songs as well as old and beloved melodies, so our archive could suit any person. Also we try to add chords and files for different music instruments, for example, you can find Pink Floyd acoustic guitar tabs, piano chords or power tabs. Many songs like Comfortably Numb have not only Comfortably Numb guitar tab type, but provide wide selection of chords and tabs for all instruments. We also try to add more Pink Floyd Guitar Pro tabs as they can bear data for whole band including sheet music.

Our newest addition - Pink Floyd lyrics - is viewed the same. Select "lyrics" in the list of the tabs and chords and the text will be displayed on the next page.

File info:


Share it:

Rate it:
Rating: 0
Band namePink Floyd »
Song nameComfortably Numb »
Tab typeGuitar tab »
Added06/10/2008
Size12.03 Kb
File formattxt
Views/Loads9/5

Sponsored links:
Wrong code.

Text of tab

   
#----------------------------------PLEASE NOTE---------------------------------#
#This file is the author's own work and represents their interpretation of the #
#song. You may only use this file for private study, scholarship, or research. #
#------------------------------------------------------------------------------##
			Comfortably Numb
			by Pink Floyd
			from The Wall



Bm				 A
	Hello, Is there any body in there?

		    G       D/F#  Em        Bm
Just nod if you can hear me,      is there anyone at home?

A
Come on, now, I hear your feeling  down,

      G	   	   D/F#   Em		Bm
well, I can ease  your  pain,   get you on your feet again.

			A		    G          D/F#   Em
relax, I need soem information, first,  just the basic facts,

	 Bm
Can you show me where it hurts

D			    A
There is no pain you are receding, 

D				 A        G/B
A distant ships smoke, on the horizon,

C				G
You are only coming through in waves,

C						G
Your lips move, but I can't hear what your saying,

     D			     A
When I was a child, I had a fever,

  D				A       G/B
my hands felt just like, two ballons,

C				    G
Now I've got that feeling once again,

G				  C
I can't explain, you would not understand,

			G
This is not how I am,

A		G/B  C		   G		    D
I______________________  have become, comforatbly numb.


solo 1

---14vvvvvv-----12-141514------------------------------------------------
------------------------------1517vvvvvvvvvv15--15-14--------------------
---------------------------------------------------------14----------------
-------------------------------------------------------------1412vvvvvv---
---------------------------------------------------------------------------
---------------------------------------------------------------------------

--1412--14(15)14----------------------------------------------------------
-----------------------1517---------15--14----------------------------------
---------------------------------------------14------------------/12vvvvvv---
-------------------------------------------------1412--11--9--7-------------
-----------------------------------------------------------------------------
-----------------------------------------------------------------------------

---------------------------------------------------------------
---------------------------------------------------------------
---11--------------119---97vvvvv----97------7---9---1112---
----------14--12----------------------------9------------------
---------------------------------------------------------------
---------------------------------------------------------------

---15-14-12---------------------------------------------------
------------15-12---------------------------------------------
------------------12------------------------------------------
---------------------12vvvvvvvv--109vvvvvvv---1097vvvvv----
--------------------------------------------------------------
--------------------------------------------------------------

			    v-- strike note
-----------------------------------------------------------
-----------------------------------------------------------
-11(12)vvvvvvvv--9(11)===(11)==97----------------------
---------------------------------------7/97vvvvvvvvvvv---
-----------------------------------------------------------
-----------------------------------------------------------

Bm			A			  G   D/F#  Em
O.K., just a little pin prick, there'll be no more (scream),

	   Bm
But you may feel a little sick.  Can you stand up?

		   A				  G  		D/F#  Em
I do believe it's working, good. That'll keep you going throught the show,

Bm
C'mon it's time to go

D			     A
There is no pain you are receding,

D				A       G/B
A distant ships smoke on the horizon,

C				 G
You are only coming through in waves,

    C					      G
Your lips move, but I can't hear what your saying,

    D				   A
When I was a child, I caught a fleeting glimpse,

D			 A     G/B
Out of the corner of my eye,

C			       G
I turned to look, but it was gone,

			   C
I can not put my finger on it now, 
			
			    G
The child is grown, the dream is gone,

A		G/B  C		G		  D
and I___________________, have become comfortably numb.


solo

---------------------------------------------------------------
---------------------------------------------------------------
--7--9--9(11)vvvvvv--9(11)97---7--9--9--7-------7vvvvvvv---
---------------------------------9-------------9--9------------
---------------------------------------------------------------
---------------------------------------------------------------


-------------------------------------------10----------------------------------
--------10------10--12--12(15)1210--12--------------------------------------
---/11------11---------------------------------------7--9--9(10)97----------
-----------------------------------------------------------------------9vvvvvv-
-------------------------------------------------------------------------------
-------------------------------------------------------------------------------


---------------------------------------------------------------------------
----107-------7-----------------------------------------------------------
-----------9-------9---7-------------------------------7-------------------
--------------------------9vvvvvvvvvv--------7---7--9-----97---9vvvvvv----
-----------------------------------------/9--------------------------------
---------------------------------------------------------------------------


--9--9(10)----7-------7---------------------------
-------------------10-----10(12)vvv----107-------
-----------------------------------------------9---
---------------------------------------------------
---------------------------------------------------
---------------------------------------------------

-------7--------------------------------------------------------
--7--7---107---------------------------------------------------
--------------9(11)97---9-7----------------------------------
-------------------------9-----9-7------------------------------
-----------------------------------9-8-7-5---5vvvvvvvvvvvvvv----
-------------------------------------------7--------------------

--------------------------7-------------------------------------------------
------------------------7---107--------------------------------------------
--7-7-7vvvvvvv---9(11)----------9(11)97---9-7---------------------------
--------------------------------------------9-----97-----------------------
------------------------------------------------------97-5-75---5--7-7/9--
----------------------------------------------------------------7-----------

----------------------------7----------------------------7------------------
--------------------------7---10--------7--------------7---107-------------
-------------7---7-9(11)--------9(11)---7--9--9(11)----------9(11)97--
--7-7-7--97---9------------------------------------------------------------
----------------------------------------------------------------------------
----------------------------------------------------------------------------


-----------------------------------------------------------------------------
---------------------------7--------------7-7-7------------------7-7-7-------
----9-7--------------------7--------------7-7-7------------------7-7-7-------
--9-----9-7----------------7--9vvvvvvv----7-7-7--"9"vvvvvvvvvv---7-7-7--9vvv-
------------9-8-7-5---50----------------------------------------------------
--------------------7--------------------------------------------------------


---------------------------------------------7------------------------
--7---------------------------------------------107--10(12)====10--
--7----9(11)97-----7--9--9(11)vvvvvvvv----------------------------
-----7-------------9--------------------------------------------------
----------------------------------------------------------------------
----------------------------------------------------------------------

----------7-------------------------------------------------------
--------7---107--------------------------------------------------
-9(11)----------9(11)97-97---7---------------------------7---
--------------------------------9---97-97---7------------9--7---
--------------------------------------------9---9-8-7-------------
------------------------------------------------------10-7--------


-----------------------------------------------------------------------
----------7-----7(8)7--------------------------7-----------------7---
--------7-7-----7(8)7-----------------797----7-----------------7---
--9-7-9---7-----7(8)7-7vvvvvv-79------------9---97-----7-979-----
--------------------------------------------------------9--------------
-----------------------------------------------------------------------


------------------------------------7-----17-17-17(19)vvv--17-19-21-21(22)vv-
--------7---7---7--7------7---7--7--7------------------------------------------
--97---7---7---7--7----7-7---7--7--7------------------------------------------
------9-----7-----------------------7------------------------------------------
-------------------------------------------------------------------------------
-------------------------------------------------------------------------------


--21(22)vvv-21-21(22)21--21(22)-21(22)-21(22)21--192119-19-19---
--------------------------------------------------------------------------
--------------------------------------------------------------------------
--------------------------------------------------------------------------
--------------------------------------------------------------------------
--------------------------------------------------------------------------


------------------------------------------------------------------------------
--17-17-17--17(19)1715----17-17-17vvvvvv---15--17-17(18)1715vvv---------
--------------------------16-----------------------------------------16-16-16-
------------------------------------------------------------------------------
------------------------------------------------------------------------------
------------------------------------------------------------------------------

----------------------------10---------10----12-12(13)-10-12-------12--
--------------------10(12)----10(12)----10------------------12-12-----
--14-16vvv--------------------------------------------------------------
-----------14-12--------------------------------------------------------
-----------------14-----------------------------------------------------
------------------------------------------------------------------------


-------------------------------------------------------------
-12(15)12--12-10---------------------------------------7---
-------------------9(11)90--97---7-97---------------7---
-----------------------------------9-------9-7---------------
-----------------------------------------------9-8-7-5-------
-------------------------------------------------------------

-----------------------------------7--7--7--7---7---7---7--7-7--7---7--7--
---7--7--7--7--7-----7---7---7--7--7--7--7--7---7---7---7--7-7--7---7--7--
---7--7--7--7--7-----7---7---7--7-----------------------------------------
-------------------9---9---9----------------------------------------------
--------------------------------------------------------------------------
--------------------------------------------------------------------------


---7-----------------------------------------------
------10-------------------------------------------
----------9(11)-9--7------------------------------
----------------------9-9-9-7----7-79-97-9vvvvv--
---------------------------------------------------
---------------------------------------------------



** NOTE**

	When changing from an A to a G/B to a C in the chorus, do it like this;


     A      G/B   C
-----0-------3----0---
-----2-------3----1---
-----2-------0----0---
-----2-------0----2---
-----0-------2----3---

listen to the CD to get the exact rythem for this part, it not hard.






legend

---7(9)------					bend
---7(9)7----					bend & release
-----"9"------					harmonic
------7/8-----					slide




transcribed by Andy Aledort for GFPM

Visit www.directTABS.com for more free tablature!


Add comment: