All tabs: 1331485
We love you! Do you like us?
Bands » Oasis » Idlers Dream » Guitar tab

Idlers Dream by Oasis guitar tab

This is the final page that leads you directly to the Guitar Pro tab, drum tab, bass guitar tab, piano chord, etc you've chosen. This page provides information concerning Idlers Dream guitar tab such as its format, type of tab or chord, upload date, number of views, number of downloads and rating of this tab provided by thetabsbest.com users.

If the tab you have selected is a downloadable one (mostly these are Oasis Guitar Pro tabs), you need to insert so called "captcha" code and click "download" button. In case the code is correct you will be redirected to download page where your Idlers Dream gp4 file will be prepared. If you have entered wrong "captcha" code, you will be asked to insert it once again to get your Idlers Dream guitar tab.

If you browse all Oasis tabs or open the list of tabs and chords for Idlers Dream, you can see there are not only Guitar Pro tabs. Guitar tabs and chords, piano & power tabs, drum tabs, bass tabs - they all can be not only in Guitar Pro file format, but also in txt. In this case no special program is needed to read the tab. All you need to do it to open such Idlers Dream tab and you will see it displayed. If you wish, you can download our free tabs in txt.

thetabsbest.com tries to expand tabs database, adding new and hot songs as well as old and beloved melodies, so our archive could suit any person. Also we try to add chords and files for different music instruments, for example, you can find Oasis acoustic guitar tabs, piano chords or power tabs. Many songs like Idlers Dream have not only Idlers Dream guitar tab type, but provide wide selection of chords and tabs for all instruments. We also try to add more Oasis Guitar Pro tabs as they can bear data for whole band including sheet music.

Our newest addition - Oasis lyrics - is viewed the same. Select "lyrics" in the list of the tabs and chords and the text will be displayed on the next page.

File info:


Share it:

Rate it:
Rating: 0
Band nameOasis »
Song nameIdlers Dream »
Tab typeGuitar tab »
Added06/06/2008
Size4.82 Kb
File formattxt
Views/Loads1/3

Sponsored links:
Wrong code.

Text of tab

   
Oasis - Idler's Dream
 _____________________
|By Noel Gallagher    |
|Tab By Tiago Rinaldi | 
 ¯¯¯¯¯¯¯¯¯¯¯¯¯¯¯¯¯¯¯¯¯
This is an amazing music!
this tab is for guitar!
if you wanna send coments,corrections email-me (eu@cheatcc.com)
Listen the music to know how to play

Idler's Dream
-------------
F:        (x33210)
C:        (x32010)
C/B:      (x20010)
E:        (022100)
E2:       (x7999x)
Am:       (x02210)
Dsus4/F#: (200233)

Intro:

e|--------------------|-------------------|----0-----0---------0-----0---------------
B|-------10--10-------|-----11----11------|------------------------------------------
G|------10--10---10---|---10----10----10--|---10----10---10---10---10----10----------  2X Then...
D|-----10--10--10-----|-10----10----10----|-10----10----10--10---10----10------------
A|--------------------|-------------------|------------------------------------------
E|--------------------|-------------------|------------------------------------------

Verse 1:

e|--------------------|-------------------|----0-----0---------0-----0---------------
B|-------10--10-------|-----11----11------|------------------------------------------
G|------10--10---10---|---10----10----10--|---10----10---10---10---10----10----------  2X 
D|-----10--10--10-----|-10----10----10----|-10----10----10--10---10----10------------
A|--------------------|-------------------|------------------------------------------
E|--------------------|-------------------|------------------------------------------
       My heart it skips a beat when I behold
       The light that's shining through your eyes of gold


Pre-Churus:

e|--------0-----------|------0-----0------|-----0-----0----0-------------------------
B|----------2---------|-----2-2---2-2-----|----1-1---1-1--1-1-1----------------------
G|-----3-------3------|----3---3-3---3----|---0--------------0-----------------------  2X 
D|---0----------------|---0---- 0-----0---|---------3----2---------------------------
A|--------------------|-------------------|------------------------------------------
E|--------------------|-------------------|------------------------------------------
        From heavenly blood you seem to spring
        from heavenly waters you can drink

Verse 2:

e|--------------------|-------------------|----0-----0---------0-----0---------------
B|-------10--10-------|-----11----11------|------------------------------------------
G|------10--10---10---|---10----10----10--|---10----10---10---10---10----10----------  2X 
D|-----10--10--10-----|-10----10----10----|-10----10----10--10---10----10------------
A|--------------------|-------------------|------------------------------------------
E|--------------------|-------------------|------------------------------------------
        I'll meet you on a day that never ends
        I'll greet you in a way that heaven meant

Pre-Churus:

e|--------0-----------|------0-----0------|-----0-----0----0-------------------------
B|----------2---------|-----2-2---2-2-----|----1-1---1-1--1-1-1----------------------
G|-----3-------3------|----3---3-3---3----|---0--------------0-----------------------  2X 
D|---0----------------|---0---- 0-----0---|---------3----2---------------------------
A|--------------------|-------------------|------------------------------------------
E|--------------------|-------------------|------------------------------------------
        You lay me down gently on the leaves
        you cover me over in my sleep

Churus:
         
            F                C
I never did say and I wish I could
              F                      C 
I never could pray 'cos it's just no good
                 F                    C
I hope you don't break up my heart of stone
        E2
I don't wanna scream out loud
                   F 
and wake up on my own. 
UHHHHH...
e|-----0-----0----0-------------------------
B|----1-1---1-1--1-1-1----------------------
G|---0--------------0-----------------------   
D|---------3----2---------------------------
A|------------------------------------------
E|------------------------------------------

Churus 2:

         Am 
And as I close my eyes
        E
and the sky turns red
  F 			C    C/B   
I realise just what you areeeeeee:
	  Am	
You're an idler's dream
	 E        	  F  F#/Dsus4  	(4X)
and your singing Shang-ri-laaaaaaaaa


e|-----0-----0----0-------------------------			    ----0---- 
B|----1-1---1-1--1-1-1----------------------			    ----1----	
G|---0--------------0-----------------------   2X Then ends with... ----0----
D|---------3----2---------------------------                        --------- 
A|------------------------------------------ 			    ---------
E|------------------------------------------			    ---------	





Thanks A lot
Tiago

Visit www.directTABS.com for more free tablature!


Add comment: