All tabs: 1331485
We love you! Do you like us?
Bands » Oasis » Don Look Back In Anger » Guitar tab

Don Look Back In Anger by Oasis guitar tab

This is the final page that leads you directly to the Guitar Pro tab, drum tab, bass guitar tab, piano chord, etc you've chosen. This page provides information concerning Don Look Back In Anger guitar tab such as its format, type of tab or chord, upload date, number of views, number of downloads and rating of this tab provided by thetabsbest.com users.

If the tab you have selected is a downloadable one (mostly these are Oasis Guitar Pro tabs), you need to insert so called "captcha" code and click "download" button. In case the code is correct you will be redirected to download page where your Don Look Back In Anger gp4 file will be prepared. If you have entered wrong "captcha" code, you will be asked to insert it once again to get your Don Look Back In Anger guitar tab.

If you browse all Oasis tabs or open the list of tabs and chords for Don Look Back In Anger, you can see there are not only Guitar Pro tabs. Guitar tabs and chords, piano & power tabs, drum tabs, bass tabs - they all can be not only in Guitar Pro file format, but also in txt. In this case no special program is needed to read the tab. All you need to do it to open such Don Look Back In Anger tab and you will see it displayed. If you wish, you can download our free tabs in txt.

thetabsbest.com tries to expand tabs database, adding new and hot songs as well as old and beloved melodies, so our archive could suit any person. Also we try to add chords and files for different music instruments, for example, you can find Oasis acoustic guitar tabs, piano chords or power tabs. Many songs like Don Look Back In Anger have not only Don Look Back In Anger guitar tab type, but provide wide selection of chords and tabs for all instruments. We also try to add more Oasis Guitar Pro tabs as they can bear data for whole band including sheet music.

Our newest addition - Oasis lyrics - is viewed the same. Select "lyrics" in the list of the tabs and chords and the text will be displayed on the next page.

File info:


Share it:

Rate it:
Rating: 0
Band nameOasis »
Song nameDon Look Back In Anger »
Tab typeGuitar tab »
Added06/06/2008
Size15.74 Kb
File formattxt
Views/Loads1/3

Sponsored links:
Wrong code.

Text of tab

   

HottestTabs [http://www.hottesttabs.com]

Don’t Look Back In Anger

Oasis

(Arranged for two guitars/May not match original, but sounds good with 2 acoustic guitars)



Intro



Guitar 1



Riff 1 (Play 2x)



   C               F

|-----------------------------------|

|--1---1---1---1---1---1---1---1----|

|--0---0---0---0---2---2---2---2----|

|--2---2---2---2---3---3---3---3----|

|----3---3---3---3---3---3---3---3--|

|-----------------------------------|



Guitar 2



   C               F

|-----------------------------------|

|---------------------------------1-|

|-------------------------------0---|

|----------------------------0h2----|

|---------------------------3-------|

|-----------------------------------|

   C        F

|-----------------------------------|

|--------------1---1----------------|

|--------------0h2-0-----0-------0--|

|--------------------0h2—--0h2p0----|

|-----------------------------------|

|-----------------------------------|



Verse 1



Guitar 1



Riff 2A (Play 2x)



   C       G       Am      E

|--0-0-0-0-3-3-3-3-0-0-0-0----------|

|--1-1-1-1-0-0-0-0-1-1-1-1-0-0-0-0--|

|--0-0-0-0-0-0-0-0-2-2-2-2-1-1-1-1--|

|--2-2-2-2-0-0-0-0-2-2-2-2-2-2-2-2--|

|--3-3-3-3-2-2-2-2-0-0-0-0-2-2-2-2--|

|----------3-3-3-3---------0-0-0-0--|



   F       G       C       Am  G

|--1-1-1-1-3-3-3-3-0-0-0-0-0-0-3-3--|

|--1-1-1-1-0-0-0-0-1-1-1-1-1-1-0-0--|

|--2-2-2-2-0-0-0-0-0-0-0-0-2-2-0-0--|

|--3-3-3-3-0-0-0-0-2-2-2-2-2-2-0-0--|

|--3-3-3-3-2-2-2-2-3-3-3-3-0-0-2-2--|

|--1-1-1-1-3-3-3-3-------------3-3--|



Guitar 2



Riff 2B (Play 2x)



   C       G       Am      E  

|------0-0-----3-3-----0-0-----0-0--|

|------1-1-----0-0-----1-1-----0-0--|

|------0-0-----0-0-----2-2-----1-1--|

|----2-2-2---0-0-0---2-2-2-----2-2--|

|--3---------------0---------2------|

|----------3---------------0--------|



   F       G       C       Am  G

|------1-1-----3-3-----0-0-0-0-3-3--|

|------1-1-----0-0-----1-1-1-1-0-0--|

|------2-2-----0-0-----0-0-2-2-0-0--|

|------3-3---0-0-0---2-2-2-2-2-0-0--|

|----3-------------3-------0-0-2-2--|

|--1-------3-------------------3-3--|



Pre Chorus Pt. 1



Guitar 1



Riff 3 (Play 3x)



   F       Fm      C

|--1-1-1-1-1-1-1-1-0-0-0-0-0-0-0-0--|

|--1-1-1-1-1-1-1-1-1-1-1-1-1-1-1-1--|

|--2-2-2-2-1-1-1-1-0-0-0-0-0-0-0-0--|

|--3-3-3-3-3-3-3-3-2-2-2-2-2-2-2-2--|

|--3-3-3-3-3-3-3-3-3-3-3-3-3-3-3-3--|

|--1-1-1-1-1-1-1-1------------------|



Guitar 2



   F       Fm       C 

|------1-------1---|-------------------|

|------1-------1---|-------------------|

|------2-------1---|5---5--------------|

|------------------|5h7-5-----5--------|

|----3-------3-----|------5/7---7h5/3--|

|--1-------1-------|-------------------|



   F       Fm       C

|------1-------1---|-------------------|

|------1-------1---|-------------------|

|------2-------1---|--------5-5-----5--|

|------------------|--------5-5-----5--|

|----3-------3-----|------------5h7----|

|--1-------1-------|-------------------|



   F       Fm       C

|------1-------1---|------------8------|

|------1-------1---|------------8------|

|------2-------1---|--------8h9----5---|

|------------------|-----------------5-|

|----3-------3-----|-------------------|

|--1-------1-------|-------------------|



Pre Chorus Pt. 2



Guitar 1



Riff 4 (Play 1x)



   G               Abdim

|--3-3-3-3-3-3-3-3------------------|

|--0-0-0-0-0-0-0-0-0-0-0-0-0-0-0-0--|

|--0-0-0-0-0-0-0-0-1-1-1-1-1-1-1-1--|

|--0-0-0-0-0-0-0-0-0-0-0-0-0-0-0-0--|

|--2-2-2-2-2-2-2-2-2-2-2-2-2-2-2-2--|

|--3-3-3-3-3-3-3-3-4-4-4-4-4-4-4-4--|



   Am      G       F

|--0-0-0-0-3-3-3-3-1-1-1-1-1-1-1-1--|

|--1-1-1-1-0-0-0-0-1-1-1-1-1-1-1-1--|

|--2-2-2-2-0-0-0-0-2-2-2-2-2-2-2-2--|

|--2-2-2-2-0-0-0-0-3-3-3-3-3-3-3-3--|

|--0-0-0-0-2-2-2-2-3-3-3-3-3-3-3-3--|

|----------3-3-3-3-1-1-1-1-1-1-1-1--|



   G

|--3-3-3-3-3-3-3-3-3-3-3-3-3-3-3-3--|

|--0-0-0-0-0-0-0-0-0-0-0-0-0-0-0-0--|

|--0-0-0-0-0-0-0-0-0-0-0-0-0-0-0-0--|

|--0-0-0-0-0-0-0-0-0-0-0-0-0-0-0-0--|

|--2-2-2-2-2-2-2-2-2-2-2-2-2-2-2-2--|

|--3-3-3-3-3-3-3-3-3-3-3-3-3-3-3-3--|



Guitar 2



   G               Abdim

|-----------------------------------|

|-----------------------------------|

|-----------------------------------|

|--5---5---5---5---6---6---6---6----|

|--5---5---5---5---5---5---5---5----|

|----3---3---3---3---4---4---4---4--|



   Am      G       F

|------------------------------------|

|------------------------------------|

|------------------------------------|

|--7---7---5---5---3---3---3---3-3/5-|

|--7---7---5---5---3---3---3---3-3/5-|

|----5---5---3---3---1---1---1-------|



   G                G

|---------------------------------------|

|-----------------------------------5---|

|-------------------5---5-7-7b9-7p5---7-|

|--5-5-5-5-5-5-5-5--5h7-5---------------|

|--5-5-5-5-5-5-5-5----------------------|

|--3-3-3-3-3-3-3-3----------------------|



Chorus



Guitar 1



Riff 2A (Play 1 3/4x)



Guitar 2



Riff 2B (Play 1 3/4x)



Post Chorus/Solo



Guitar 1



Riff 2A (Play 1x)



Guitar 2



   E                  F    G            C    Am       G

|-----------------------------------------------------------------|

|------------------------------8----------------------------------|

|------5-7-7b9r7--5---5----7s9----b8r7--5--------5h7------5h7--5--|

|--5h7--------------7------------------------5h7------5h7---------|

|-----------------------------------------------------------------|

|-----------------------------------------------------------------|



Verse 2



Guitar 1 



Riff 2A (Play 2x)



Guitar 2 



[Play These Fills During Verse]



   F(knows…)   G(if its night..)C          

|----------------------------------|

|----------------------------------|

|--5---5------------------5h7---5--|

|--5h7-5----------5---5h7----------|

|---------5--5h7-------------------|

|----------------------------------|



   Am         G      C                                 Am

|-----------------------------------------------------------|

|-----------------------------------------------------------|

|--7b9--7--5--7--5-------------------------------------5--5-|

|--------------------------------------------------5h7------|

|-----------------------------------------------------------|

|-----------------------------------------------------------|



           E(rock &..) F          G               C

|-------------------------------------------------------|        

|-------------------------------------------------------|

|---7-5--7b9--7--5--7--5--------------------5--5-----5--|

|--------------------------------------5h7--------7-----|

|-------------------------------------------------------|

|-------------------------------------------------------|



Guitar 3



[Play This Fill During Verse After Lyrics “Hands” And “Band”]



|--12------12----|

|--15b17---15b17-|

|----------------|

|----------------|

|----------------|

|----------------|



Pre Chorus Pt. 1



Guitar 1



Riff 3 (Play 3x)



Guitar 2



   F       Fm       C

|------1-------1---|----------8--------|

|------1-------1---|----------8--------|

|------2-------1---|------8h9--------5-|

|------------------|-----------------5-|

|----3-------3-----|-------------5h7---|

|--1-------1-------|-------------------|



   F       Fm       C

|------1-------1---|-------------------|

|------1-------1---|----------5--------|

|------2-------1---|------7b9---7p5---5|

|------------------|----------------7--|

|----3-------3-----|-------------------|

|--1-------1-------|-------------------|



   F       Fm       C

|------1-------1---|------------8------|

|------1-------1---|------------8------|

|------2-------1---|--------8h9----5---|

|------------------|-----------------5-|

|----3-------3-----|-------------------|

|--1-------1-------|-------------------|



Pre Chorus Pt. 2



Guitar 1



Riff 4 (Play 1x)



Guitar 2



   G               Abdim

|-----------------------------------|

|-----------------------------------|

|-----------------------------------|

|--5---5---5---5---6---6---6---6----|

|--5---5---5---5---5---5---5---5----|

|----3---3---3---3---4---4---4---4--|



   Am      G       F

|------------------------------------|

|------------------------------------|

|------------------------------------|

|--7---7---5---5---3---3---3---3-3/5-|

|--7---7---5---5---3---3---3---3-3/5-|

|----5---5---3---3---1---1---1-------|



   G

|------------------------------------------------5--------------------|

|---------------------------------------------------------------------|

|---------------5---7--5--7b9r7--5-----5--7--7b9----7--5--7--5--7—-5--|

|--5-5-5-5-5h7----------------------7---------------------------------|

|--5-5-5-5------------------------------------------------------------|

|--3-3-3-3------------------------------------------------------------|



Chorus



Guitar 1



Riff 2A (Play 2x)



Guitar 2



Riff 2B (Play 2x)



Guitar Solo



Guitar 1



Riff 3 (Play 3x)



Guitar 2



  F         Fm             C

|-----------------------|----------------------------|

|-----------------------|----------------------------|

|-7^8r7-7^8r7-7^8r7-5---|-----5-5--5-7^8-5-5-----7-5-|

|---------------------5-|--5h7--5h7----------7-7-----|

|-----------------------|----------------------------|

|-----------------------|----------------------------|



  F         Fm             C

|-----------------------|------------------------|

|-----------------------|------------------------|

|-7^8r7-7^8r7-7^8r7-5---|--5---5-----------------|

|---------------------5-|--5h7-5-------5---------|

|-----------------------|-------h7-5/7---7\\5-3--|

|-----------------------|------------------------|



  F             Fm                C

|-------------------------------|------------8-8-8h10-8--|

|-------------------------------|-----8-8-10-------------|

|---------------5-5-7^8r7p5---5-|-7/9--------------------|

|-----------5-7-------------7---|------------------------|

|-----3-5/7---------------------|------------------------|

|-1-5---------------------------|------------------------|



      G                             Abdim

|-----8------8------8------8------8|8h10p8------8------8------8-8\-0-0|

|8h10---8h10---8h10---8h10---8h10--|-------8h10---8h10---8h10---8\----|

|----------------------------------|----------------------------------|

|----------------------------------|----------------------------------|

|----------------------------------|----------------------------------|

|----------------------------------|----------------------------------|



  Am                      G

|-------------------------------------------|

|-17----17----17----17----17-17-17----17-17-|

|-19^21-19^21-19^21-19^21-------19^21-------|

|-------------------------------------------|

|-------------------------------------------|

|-------------------------------------------|



  F

|----------------------17----------------------|

|----------------------------------17-------17-|

|-19^21-17-19-17-19^21----19-19^21----19^21----|

|----------------------------------------------|

|----------------------------------------------|

|----------------------------------------------|



  G

|------------------------------------------------------------------|

|-17----17-17-17----17-17-17----17-17-17----17-17-17----17-17-17\\-|

|-19^21-------19^21-------19^21-------19^21-------19^21------------|

|------------------------------------------------------------------|

|------------------------------------------------------------------|

|------------------------------------------------------------------|



Chorus



Guitar 1



Riff 2A (Play 2x)



Guitar 2



Riff 2B (Play 2x)



Chorus



Guitar 1



Riff 2A (Play 1 1/4x)



Guitar 2



   C  G           Am    E                        F          G     C

|--------------------------------------------------------------------|

|----------5--5s9----------------5--5s9----------8--8--8----6-----5--|

|--5--5--7--------------5--5--7------------------9--9--9----7-----5--|

|--------------------------------------------------------------------|

|--------------------------------------------------------------------|

|--------------------------------------------------------------------|



   C                        C         G    Am                           

|---------------------------------------------|

|--6---5----8---------------8---------6p5--5--|

|----5---5-----5--5---------------------------|

|---------------------------------------------|

|---------------------------------------------|

|---------------------------------------------|



Outro



Guitar 1



   Am        F         Fm

|--0------|--1------|--1------|

|--1------|--1------|--1------|

|--2------|--2------|--1------|

|--2------|--3------|--3------|

|--0------|--3------|--3------|

|---------|--1------|--1------|



   C       G       Am      E

|--0-0-0-0-3-3-3-3-0-0-0-0----------|

|--1-1-1-1-0-0-0-0-1-1-1-1-0-0-0-0--|

|--0-0-0-0-0-0-0-0-2-2-2-2-1-1-1-1--|

|--2-2-2-2-0-0-0-0-2-2-2-2-2-2-2-2--|

|--3-3-3-3-2-2-2-2-0-0-0-0-2-2-2-2--|

|----------3-3-3-3---------0-0-0-0--|



   F       Fm         C

|--1-1-1-1-1-1-1-1--|-0----|

|--1-1-1-1-1-1-1-1--|-1----|

|--2-2-2-2-1-1-1-1--|-0----|

|--3-3-3-3-3-3-3-3--|-2----|

|--3-3-3-3-3-3-3-3--|-3----|

|--1-1-1-1-1-1-1-1--|------|



Guitar 2



   Am        F         Fm

|--0------|--1------|--1------|

|--1------|--1------|--1------|

|--2------|--2------|--1------|

|--2------|---------|---------|

|--0------|---------|---------|

|---------|---------|---------|



   C              G                     Am         E

|-----------------------------------------------------------|

|-----------------------------------------------------------|

|------------5-7--7b9r7--5-----5--7--5--7b9---7--5---5h7--5-|

|-------5h7-----------------7-------------------------------|

|--5h7------------------------------------------------------|

|-----------------------------------------------------------|



   F         Fm             C

|-------------------------|-0------|

|-------------------------|-1------|

|-------------------------|-0------|

|--7--5------------5------|-2------|

|--------3-5-5s7--------7/|-3------|

|-------------------------|--------|



Lyrics



Slip inside the eye of your mind

Don't you know you might find

A better place to play

You said that you'd once never been

All the things that you've seen

Will slowly fade away 



So I'll start the revolution from my bed

Cos you said the brains I had went to my head

Step outside the summertime's in bloom

Stand up beside the fireplace

Take that look from off your face

You ain't ever gonna burn my heart out 



So Sally can wait, she knows its too late as we're walking on by

Her soul slides away, but don't look back in anger I hear you say 



Take me to the place where you go

Where nobody knows if it's night or day

Please don't put your life in the hands

Of a Rock n Roll band

Who'll throw it all away 



So I'll start the revolution from my bed

Cos you said the brains I had went to my head

Step outside the summertime's in bloom

Stand up beside the fireplace

Take that look from off your face

You ain't ever gonna burn my heart out 



So Sally can wait, she knows its too late as we're walking on by

Her soul slides away, but don't look back in anger I hear you say 



Don't look back in anger

Don't look back in anger

Don't look back in anger

At least not today


Add comment: