All tabs: 1331485
We love you! Do you like us?
Bands » Oasis » Be Here Now » Guitar tab

Be Here Now by Oasis guitar tab

This is the final page that leads you directly to the Guitar Pro tab, drum tab, bass guitar tab, piano chord, etc you've chosen. This page provides information concerning Be Here Now guitar tab such as its format, type of tab or chord, upload date, number of views, number of downloads and rating of this tab provided by thetabsbest.com users.

If the tab you have selected is a downloadable one (mostly these are Oasis Guitar Pro tabs), you need to insert so called "captcha" code and click "download" button. In case the code is correct you will be redirected to download page where your Be Here Now gp4 file will be prepared. If you have entered wrong "captcha" code, you will be asked to insert it once again to get your Be Here Now guitar tab.

If you browse all Oasis tabs or open the list of tabs and chords for Be Here Now, you can see there are not only Guitar Pro tabs. Guitar tabs and chords, piano & power tabs, drum tabs, bass tabs - they all can be not only in Guitar Pro file format, but also in txt. In this case no special program is needed to read the tab. All you need to do it to open such Be Here Now tab and you will see it displayed. If you wish, you can download our free tabs in txt.

thetabsbest.com tries to expand tabs database, adding new and hot songs as well as old and beloved melodies, so our archive could suit any person. Also we try to add chords and files for different music instruments, for example, you can find Oasis acoustic guitar tabs, piano chords or power tabs. Many songs like Be Here Now have not only Be Here Now guitar tab type, but provide wide selection of chords and tabs for all instruments. We also try to add more Oasis Guitar Pro tabs as they can bear data for whole band including sheet music.

Our newest addition - Oasis lyrics - is viewed the same. Select "lyrics" in the list of the tabs and chords and the text will be displayed on the next page.

File info:


Share it:

Rate it:
Rating: 0
Band nameOasis »
Song nameBe Here Now »
Tab typeGuitar tab »
Added06/06/2008
Size5.13 Kb
File formattxt
Views/Loads8/0

Sponsored links:
Wrong code.

Text of tab

   
Be Here Now by Oasis


Chords Used:
A5     (577xxx)
A6     (59xxxx)
A7     (5 10xxxx)
Bb5    (688xxx)
B5     (799xxx)
B6     (7 11xxx)
B7     (7 12xxx)
C#5    (9 11 11xxx)
E6     (04xxxx)
E7     (05xxxx)
G5     (355xxx)

Noels main guitar riff, played throughout
E------------------------         E-------------------------                                     
B------------------------    1st  B-------------------------                                                        
G--10s9--7h8-------------x3  time G-----7----------------7--                                           
D--10s9-------9--7--9--7-         D--9-----9----7----9------                                 
A------------------------         A-------------------------                                              
E------------------------         E-------------------------

     E--------------------------
2nd  B--------------------------
time G--9b----r7----7-----7-----
     D-----------9-----9-----9--
     A--------------------------
     E--------------------------
B5
Wash you face in the morining sun, 
                      C#5           A5
flash your pan at the song that I'm singing.
Touch down base livin' on the run,
I make no sweat of the hole that you're digging

(Noel whistles)

Wrap up cold when it's warm outside,
your *** jokes remind me of Digsy's.
Be my magic carpet ride,
fly me down to capitol city, in the sun.

(Noel whistles)

E5                          G5            A5
Kicking up storm. E---------------------------------------
                  B--8--10--10b--r10--8--10-----8b--------
                  G------------------------------------9--
                  D---------------------------------------
                  A---------------------------------------
                  E---------------------------------------
          E5
From the day that I was born. (repeat riff)
E5                  G5             A5
Sing a song for me, one from 'Let It Be'. 

E--------------------------------------------
B--8--10--10b--r10--8--10------8------10b~---
G--------------------------------------------
D--------------------------------------------
A--------------------------------------------
E--------------------------------------------
G5                       A5           Bb5         B5
Open up your eyes, get a grip of yourself inside.

(repeat above throughout)

So wash your face in the morining sun,
flash your pan at the song that I'm singing.
Touch down base livin' on the ground,
make no sweat of the hole that youre digging

Kicking up a storm. From the day that I was born.
Sing a song for me, one from 'Let It Be'.
Open up your eyes, get a grip of yourself inside.

Middle Solo (chords= B5 B6 B5 B6 B5  A5 A6 A5 A6 A5  E5 E6 E5 E6 E5)
E-----------------------
B----------------------- a couple of times
G--6b----4---4--------4-
D---------(6)-----4h6---
A-----------------------
E-----------------------

E--------------------- E------------   E-----------------------------
B----7---------------- B------------X2 B----7-----7-----7------------
G--6B--6--4---------4- G--6B-B-B--4-   G--6B----6B----6B----6B----4~-
D---------------4H6--- D------------   D-----------------------------
A--------------------- A------------   A-----------------------------
E--------------------- E------------   E-----------------------------
                                
E-----------------------------------------------------
B--7-7-5-(4)-4-5-4-7----5--4-4-5-4-7--7-7-5---4-5-4---
G--4-4-4-(4)-4-4-4-4----4--4-4-4-4-4--4-4-4---4-4-4-4-
D--4-4-4-(4)-4-4-4-4----4--4-4-4-4-4--4-4-4---4-4-4---
A-----------------------------------------------------
E-----------------------------------------------------

E-----------------------  You betcha G--4~~~~~~~~~~~~~~~--
B-----------------------
G--6b---4----6b---4---4-
D---------6---------6---
A-----------------------
E-----------------------

Repeat verse and chorus

Outro solo
E--------------------------------------------------------------
B--------------------------7--7--------------------------------
G-----------7--7-----------------9--7--------------------7--9b-
D--7---7--9----------9-------------------9-------7---7h9-------
A--------------------------------------------------------------
E--------------------------------------------------------------
cont.
E---------------------------------------------------------------
B--10-----------------------------------------------------------
G------7----9---7---------------7-----7----------------7----7---
D---------9---9---9----7---7h9----------9--7--9----7h9---------9
A---------------------------------------------------------------
E---------------------------------------------------------------
cont.
E--------------------------------------------------------
B--------------------------------------------------------  ad lib
G-------------7--------7-----------7-----------------7---  'till end
D-7--9----7h9----7-7h9-----9p7--9----9p7h9---9--7--9-----
A--------------------------------------------------------
E--------------------------------------------------------

Visit www.directTABS.com for more free tablature!


Add comment: