All tabs: 1331485
We love you! Do you like us?

Two Lips Two Lungs And One Tongue by Nomeansno guitar tab

This is the final page that leads you directly to the Guitar Pro tab, drum tab, bass guitar tab, piano chord, etc you've chosen. This page provides information concerning Two Lips Two Lungs And One Tongue guitar tab such as its format, type of tab or chord, upload date, number of views, number of downloads and rating of this tab provided by thetabsbest.com users.

If the tab you have selected is a downloadable one (mostly these are Nomeansno Guitar Pro tabs), you need to insert so called "captcha" code and click "download" button. In case the code is correct you will be redirected to download page where your Two Lips Two Lungs And One Tongue gp4 file will be prepared. If you have entered wrong "captcha" code, you will be asked to insert it once again to get your Two Lips Two Lungs And One Tongue guitar tab.

If you browse all Nomeansno tabs or open the list of tabs and chords for Two Lips Two Lungs And One Tongue, you can see there are not only Guitar Pro tabs. Guitar tabs and chords, piano & power tabs, drum tabs, bass tabs - they all can be not only in Guitar Pro file format, but also in txt. In this case no special program is needed to read the tab. All you need to do it to open such Two Lips Two Lungs And One Tongue tab and you will see it displayed. If you wish, you can download our free tabs in txt.

thetabsbest.com tries to expand tabs database, adding new and hot songs as well as old and beloved melodies, so our archive could suit any person. Also we try to add chords and files for different music instruments, for example, you can find Nomeansno acoustic guitar tabs, piano chords or power tabs. Many songs like Two Lips Two Lungs And One Tongue have not only Two Lips Two Lungs And One Tongue guitar tab type, but provide wide selection of chords and tabs for all instruments. We also try to add more Nomeansno Guitar Pro tabs as they can bear data for whole band including sheet music.

Our newest addition - Nomeansno lyrics - is viewed the same. Select "lyrics" in the list of the tabs and chords and the text will be displayed on the next page.

File info:


Share it:

Rate it:
Rating: 0
Band nameNomeansno »
Song nameTwo Lips Two Lungs And One Tongue »
Tab typeGuitar tab »
Added06/06/2008
Size4.41 Kb
File formattxt
Views/Loads1/1

Sponsored links:
Wrong code.

Text of tab

   


Artist: Nomeansno

Song: Two Lips, Two Lungs, and One Tongue

Album: Wrong (1989)

Bassist: Rob Wright

Tuning: E-A-D-G





Intro:

G|--12-12-12-12-12-12-12-12-12-12-12-12-11-11-11-11-11-11-11-11-11-11-11-11--|

D|--12-12-12-12-12-12-12-12-12-12-12-12-11-11-11-11-11-11-11-11-11-11-11-11--|

A|--10-10-10-10-10-10-10-10-10-10-10-10-9--9--9--9--9--9--9--9--9--9--9--9---|

E|---------------------------------------------------------------------------|



G|--12-12-12-12-12-12-12-12-12-12-12-12-----11----11----11----11--|

D|--12-12-12-12-12-12-12-12-12-12-12-12---------------------------|

A|--10-10-10-10-10-10-10-10-10-10-10-10-9-9---9-9---9-9---9-9-----|

E|----------------------------------------------------------------|





Verse 1:

G|---------------------------------------------------|

D|---------------------------------------------------|

A|---------------------------------------------------|

E|--3-3-3-3-3-3-3-3-3-3-3-3-2-2-2-2-2-2-2-2-2-2-2-2--| (x2)





Chorus:

G|--9--9--9--9--9--9--9--9--9--9--9--9--9--9--9--9--9--9--9--9--9--9--|

D|--9--9--9--9--9--9--9--9--9--9--9--9--9--9--9--9--9--9--9--9--9--9--|

A|--7--7--7--7--7--7--7--7--7--7--7--7--7--7--7--7--7--7--7--7--7--7--|

E|--------------------------------------------------------------------|



G|--12-12-12-12-12-12-12-12-12-12-12-12-11-11-11-11-11-11-11-11-11-11-11-11--|

D|--12-12-12-12-12-12-12-12-12-12-12-12-11-11-11-11-11-11-11-11-11-11-11-11--|

A|--10-10-10-10-10-10-10-10-10-10-10-10-9--9--9--9--9--9--9--9--9--9--9--9---|

E|---------------------------------------------------------------------------|



G|--12-12-12-12-12-12-12-12-12-12-12-12-----11----11----11----11--|

D|--12-12-12-12-12-12-12-12-12-12-12-12---------------------------|

A|--10-10-10-10-10-10-10-10-10-10-10-10-9-9---9-9---9-9---9-9-----|

E|----------------------------------------------------------------|





Verse 2:

G|---------------------------------------------------|

D|---------------------------------------------------|

A|---------------------------------------------------|

E|--3-3-3-3-3-3-3-3-3-3-3-3-2-2-2-2-2-2-2-2-2-2-2-2--| (x2)





Chorus:

G|--9--9--9--9--9--9--9--9--9--9--9--9--9--9--9--9--9--9--9--9--9--9--|

D|--9--9--9--9--9--9--9--9--9--9--9--9--9--9--9--9--9--9--9--9--9--9--|

A|--7--7--7--7--7--7--7--7--7--7--7--7--7--7--7--7--7--7--7--7--7--7--|

E|--------------------------------------------------------------------|



G|--12-12-12-12-12-12-12-12-12-12-12-12-11-11-11-11-11-11-11-11-11-11-11-11--|

D|--12-12-12-12-12-12-12-12-12-12-12-12-11-11-11-11-11-11-11-11-11-11-11-11--|

A|--10-10-10-10-10-10-10-10-10-10-10-10-9--9--9--9--9--9--9--9--9--9--9--9---|

E|---------------------------------------------------------------------------|



G|--12-12-12-12-12-12-12-12-12-12-12-12-11--|

D|--12-12-12-12-12-12-12-12-12-12-12-12-11--|

A|--10-10-10-10-10-10-10-10-10-10-10-10-9---|

E|------------------------------------------|





  Guitar Solo





G|--12-12-12-12-12-12-12-12-12-12-12-12-11-11-11-11-11-11-11-11-11-11-11-11--|

D|--12-12-12-12-12-12-12-12-12-12-12-12-11-11-11-11-11-11-11-11-11-11-11-11--|

A|--10-10-10-10-10-10-10-10-10-10-10-10-9--9--9--9--9--9--9--9--9--9--9--9---|

E|---------------------------------------------------------------------------|



G|--12-12-12-12-12-12-12-12-12-12-12-12----11----11----11----11--|

D|--12-12-12-12-12-12-12-12-12-12-12-12--11----11----11----11----|

A|--10-10-10-10-10-10-10-10-10-10-10-10-9-----9-----9-----9------|

E|---------------------------------------------------------------|





Verse 3:

G|---------------------------------------------------|

D|---------------------------------------------------|

A|---------------------------------------------------|

E|--3-3-3-3-3-3-3-3-3-3-3-3-2-2-2-2-2-2-2-2-2-2-2-2--| (x2)





Outro:

G|--9--9--9--9--9--9--9--9--9--9--9--9--9--9--9--9--9--9--9--9--9--9--|

D|--9--9--9--9--9--9--9--9--9--9--9--9--9--9--9--9--9--9--9--9--9--9--|

A|--7--7--7--7--7--7--7--7--7--7--7--7--7--7--7--7--7--7--7--7--7--7--|

E|--------------------------------------------------------------------|



G|--9--9--9--9--9--9--9--9--9--9--9--9--9--9--9--9--9--9--9--9--9--|

D|--9--9--9--9--9--9--9--9--9--9--9--9--9--9--9--9--9--9--9--9--9--|

A|--7--7--7--7--7--7--7--7--7--7--7--7--7--7--7--7--7--7--7--7--7--|

E|------------------------------------------------------------------|





Add comment: