All tabs: 1331485
We love you! Do you like us?
Bands » Nomeansno » Dark Ages » Bass tab

Dark Ages by Nomeansno bass tab

This is the final page that leads you directly to the Guitar Pro tab, drum tab, bass guitar tab, piano chord, etc you've chosen. This page provides information concerning Dark Ages bass tab such as its format, type of tab or chord, upload date, number of views, number of downloads and rating of this tab provided by thetabsbest.com users.

If the tab you have selected is a downloadable one (mostly these are Nomeansno Guitar Pro tabs), you need to insert so called "captcha" code and click "download" button. In case the code is correct you will be redirected to download page where your Dark Ages gp4 file will be prepared. If you have entered wrong "captcha" code, you will be asked to insert it once again to get your Dark Ages bass tab.

If you browse all Nomeansno tabs or open the list of tabs and chords for Dark Ages, you can see there are not only Guitar Pro tabs. Guitar tabs and chords, piano & power tabs, drum tabs, bass tabs - they all can be not only in Guitar Pro file format, but also in txt. In this case no special program is needed to read the tab. All you need to do it to open such Dark Ages tab and you will see it displayed. If you wish, you can download our free tabs in txt.

thetabsbest.com tries to expand tabs database, adding new and hot songs as well as old and beloved melodies, so our archive could suit any person. Also we try to add chords and files for different music instruments, for example, you can find Nomeansno acoustic guitar tabs, piano chords or power tabs. Many songs like Dark Ages have not only Dark Ages bass tab type, but provide wide selection of chords and tabs for all instruments. We also try to add more Nomeansno Guitar Pro tabs as they can bear data for whole band including sheet music.

Our newest addition - Nomeansno lyrics - is viewed the same. Select "lyrics" in the list of the tabs and chords and the text will be displayed on the next page.

File info:


Share it:

Rate it:
Rating: 0
Band nameNomeansno »
Song nameDark Ages »
Tab typeBass tab »
Added06/06/2008
Size3.84 Kb
File formattxt
Views/Loads1/0

Sponsored links:
Wrong code.

Text of tab

   
================================================================================
    Title: Dark Ages                              Author: Nomeansno
    Album: Small Parts Isolated And Destroyed     Tabber: notsirK 

================================================================================



Intro/ Bridge:

G: -----------------|-----------------|-----------------|-----------------|
D: 7-------5--------|-----------------|-----------------|-----------------|
A: -----------------|8-------7---5----|-----------------|-----------------|
E: -----------------|-----------------|-----------------|8-------7--------|  (x3)


G: -----------------|-----------------|-----------------|-----------------|
D: 7-------5--------|-----------------|-----------------|-----------------|
A: -----------------|8-------7---5----|-----------------|-----------------|
E: -----------------|-----------------|-----------------|8-------7--------|



Verse:

G: ------------3----|-----------------|------------5----|-----------------|
D: -----------------|-----------------|-----------------|3---3---3---0----|
A: 5-------5--------|-----------------|5-------5--------|-----------------|
E: -----------------|6---6---6---0----|-----------------|-----------------|



Chorus:

G: -----------------|-----------------|-----------------|-----------------|
D: 5-------5--------|-----------------|-----------------|3---3---3---3----|
A: -----------------|3-------3--------|5-------5--------|-----------------|
E: -----------------|-----------------|-----------------|-----------------|  (x4)


(Bridge x4)

(Verse x10)

(Chorus x4)

(Bridge x4)



Extended Bridge:


G: -----------------|-----------------|-----------------|-----------------|
D: -----------------|-----------------|-----------------|-----------------|
A: -----------------|3-------5--------|----7------------|-----------------|
E: 5---3-------5----|------------3----|-----------------|-----------------|  


G: -----------------|-----------------|-----------------|-----------------|
D: -----------------|-----------------|-----------------|-----------------|
A: -----------------|-----------------|-----------------|-----------------|
E: 5---5---5---5----|6---6---6---6----|5---5---5---5----|6---6---6---6----|  (x2)


   +   +   +   +     +   +   +   +     +   +   +   +     +   +   +   +  
G: -----------------|-----------------|-----------------|-----------------|
D: -----------------|-----------------|-----------------|------------5----|
A: -----------------|-----------------|-----------------|----------6------|
E: 5---5---5---5----|6---6---6---6----|5---5---5---5----|6---6---6--------|



Guitar Solo:
 
   +   +   +   +     +   +   +   +     +   +   +   +     slide   +   +  
G: -----------------|-----------------|-----------------|-----------------|
D: -----------------|-----------------|-----------------|5\---------------|
A: 5----------------|-----------------|5----------------|-----------------|
E: -----------------|-----------------|-----------------|-----------------|
    
(verse throughout rest of solo)                                                      


Interlude:
 
G: -----------------|-----------------|-----------------|-----------------|
D: -----------------|-----------------|-----------------|-----------------|
A: 5-------5--------|5-------5--------|5-------5--------|5-------5--------|
E: -----------------|-----------------|-----------------|-----------------|


(Verse x6)
(Chorus x4)



Outro:

(bass plays verse)


Add comment: