All tabs: 1331485
We love you! Do you like us?
Bands » Nofx » Truck Stop Blues » Guitar tab

Truck Stop Blues by Nofx guitar tab

This is the final page that leads you directly to the Guitar Pro tab, drum tab, bass guitar tab, piano chord, etc you've chosen. This page provides information concerning Truck Stop Blues guitar tab such as its format, type of tab or chord, upload date, number of views, number of downloads and rating of this tab provided by thetabsbest.com users.

If the tab you have selected is a downloadable one (mostly these are Nofx Guitar Pro tabs), you need to insert so called "captcha" code and click "download" button. In case the code is correct you will be redirected to download page where your Truck Stop Blues gp4 file will be prepared. If you have entered wrong "captcha" code, you will be asked to insert it once again to get your Truck Stop Blues guitar tab.

If you browse all Nofx tabs or open the list of tabs and chords for Truck Stop Blues, you can see there are not only Guitar Pro tabs. Guitar tabs and chords, piano & power tabs, drum tabs, bass tabs - they all can be not only in Guitar Pro file format, but also in txt. In this case no special program is needed to read the tab. All you need to do it to open such Truck Stop Blues tab and you will see it displayed. If you wish, you can download our free tabs in txt.

thetabsbest.com tries to expand tabs database, adding new and hot songs as well as old and beloved melodies, so our archive could suit any person. Also we try to add chords and files for different music instruments, for example, you can find Nofx acoustic guitar tabs, piano chords or power tabs. Many songs like Truck Stop Blues have not only Truck Stop Blues guitar tab type, but provide wide selection of chords and tabs for all instruments. We also try to add more Nofx Guitar Pro tabs as they can bear data for whole band including sheet music.

Our newest addition - Nofx lyrics - is viewed the same. Select "lyrics" in the list of the tabs and chords and the text will be displayed on the next page.

File info:


Share it:

Rate it:
Rating: 0
Band nameNofx »
Song nameTruck Stop Blues »
Tab typeGuitar tab »
Added06/06/2008
Size13.12 Kb
File formattxt
Views/Loads1/2

Sponsored links:
Wrong code.

Text of tab

   
NOFX
Truck Stop Blues

Tabbed by Kane Heinonen.

This song is the best song on Liberal Animation. Im a little disapponted cause
they didnt make more songs with Dave...
anyway, I tabbed the most of the solo, but its impossible to tab it
all correctly... so there are mistakes, but it sounds ok. And on those very
fast parts there are only main notes. And for the acoustic guitar I know there are two of them, but they sound almost the same. So here is only one.

A= acoustic guitar 
B= solo background guitar (Melvin)
C= solo guitar (Dave)

>A  D                              |F#m                             >
E----------------------------------|-------------------------------->
B-----3-------3-------3-------3----|--2-------2-------2-------2----->
G---------2-------2-------2-------2|------2-------2-------2-------2->
D---0---4---0---4---0---4---0---4--|--------------------------------> 
A----------------------------------|4-------4-------4-------4------->
E----------------------------------|-------------------------------->

>A  C                              |Em7                             >
>----------------------------------|-------------------------------->
>-----1-------1-------1-------1----|--3-------3-------3-------3----->
>---------0-------0-------0-------0|------0-------0-------0-------0->
>----------------------------------|-------------------------------->
>---3-------3-------3-------3------|2-------2-------2-------2------->
>----------------------------------|-------------------------------->

>A  Am                             |Am                              >
>-------------0---------------0----|----------0------3-------------->
>-----1-----------1---1-----------1|--1-----------1------1---------->
>---------2---------------2--------|------2---------2------2-------->
>-----------2---------------2------|--------2----------------------->
>---0---------------0--------------|0------------------------------->
>----------------------------------|----------------------------3--->

>A  F                              |Am                              >
>-------------1--------------------|----------0--------------------->
>-----1-----------1---1------------|--1-----------1------1------1--->
>---------2---------------2--------|------2---------2------2-------->
>----------------------------------|--------2---------2------2------>
>-----------3---------3---3-3---3--|0------------------0------0----->
>---1------------------------------|-------------------------------->

>A  Dm                             |C                               >
>-----1-------1-------1-------1----|----------0---------------0----->
>---------3-------3-------3-------3|--1-----------1---1-----------1->
>----------------------------------|------0---------------0--------->
>---0-------0-------0-------0------|-------------------------------->
>----------------------------------|3-------3-------3-------3------->
>----------------------------------|-------------------------------->

>A  Em7                            |Am                              >
>-------------0---------------0----|----------0--------------------->
>-----3-----------3---3-----------3|--1-----------1---1------------->
>---------0---------------0--------|------2---------------2--------->
>----------------------------------|--------2----------------------->
>---2-------2-------2-------2------|0---------------0-------0---2--->
>----------------------------------|-------------------------------->

>A  C                              |Em7                             >
>-------------0---------------0----|----------0---------------0----->
>-----1-----------1---1-----------1|--3-----------3---3-----------3->
>---------0---------------0--------|------0---------------0--------->
>----------------------------------|-------------------------------->
>---3-------3-------3-------3------|2-------2-------2-------2------->
>----------------------------------|-------------------------------->

>A  Am                             |Am                              >
>-------------0---------------0----|--3-------0--------------------->
>-----1-----------1---1-----------1|------1-------1---3------------->
>---------2---------------2--------|2-------2-------------2--------->
>-----------2---------------2------|-------------------------------->
>---0---------------0--------------|----------------0-------0------->
>----------------------------------|----------------------------3--->

>A  F                              |Am                              >
>-------------1--------------------|----------0--------------------->
>-----1-----------1---1------------|--1-----------1---1------------->
>---------2---------------2--------|------2---------------2--------->
>----------------------------------|--------2----------------------->
>-----------3---------3---3-3---3--|0---------------0-------0------->
>---1------------------------------|----------------------------3--->

>A  F                              |Am                              >
>-------------1--------------------|----------0--------------------->
>-----1-----------1---1------------|--1-----------1------1------1--->
>---------2---------------2--------|------2---------2------2-------->
>----------------------------------|--------2---------2------2------>
>-----------3---------3---3-3---3--|0------------------0------0----->
>---1------------------------------|-------------------------------->

>A  Dm                             |C                               >
>-----1-------1-------1-------1----|----------0---------------0----->
>---------3-------3-------3-------3|--1-----------1---1-----------1->
>----------------------------------|------0---------------0--------->
>---0-------0-------0-------0------|-------------------------------->
>----------------------------------|3-------3-------3-------3------->
>----------------------------------|-------------------------------->

>A  Em7                            |Am                              >
>-------------0---------------0----|----------0--------------------->
>-----3-----------3---3-----------3|--1-----------1---1------------->
>---------0---------------0--------|------2---------------2--------->
>----------------------------------|--------2----------------------->
>---2-------2-------2-------2------|0---------------0-------0---2--->
>----------------------------------|-------------------------------->

>A  C                              |Em7                             >
>-------------0---------------0----|----------0-------3------------->
>-----1-----------1---1-----------1|--3-----------3-------3---3---3->
>---------0---------------0--------|------0------------------------->
>----------------------------------|-------------------------------->
>---3-------3-------3-------3------|2-------2-------2-------2------->
>----------------------------------|-------------------------------->

>A  Am                              |Am                               
>-------------0---------------3----|--0-----------------------------|
>-----1-----------1---1-----------1|------1---3-------1-------------|
>---------2---------------2--------|2-------------2-------2---------|
>-----------2---------------2------|--------------------------------|
>---0---------------0--------------|--------0-------0-------0-------|
>----------------------------------|--------------------------------|

<<<= pick slide
*= play 6-8 times
h= hammer-on
p= pull-off
/= slide up
= slide down
B
>------------------------->
>------------------------->
>-----*-----*-----*-----*->
>--5-3---5-7---5-3---5-7-->
>--5-3---5-7---5-3---5-7-->
>--3-1---3-5---3-1---3-5-->

C
>------------------------------------------------------>
>------------------------------------------------------>
>--------------------------5--557-7b--7bv--775-5v\--->
>-----------------57p5--577--7----------------7-------->
><<<--------5----7----7-------------------------------->
><<<--5h8p5--8p5--------------------------------------->

B
>-----------------------------------------------------
>------*---------------------------*------------------
>-----7---------------------------5-------------------
>-----7---------------------------5-------------------
>-----5---------------------------3-------------------
>-----------------------------------------------------

C
>-/------2-times-----------------------|--8p5-8p5-8p5-->
>--8p5-8p5-8p5-8p5---8b--8b--885--------|---2-times--/->
>-----7---7---7---7-------------75v\--|--------------->
>---------------------------------------|--------------->
>---------------------------------------|--------------->
>---------------------------------------|--------------->

B
>-------------------------------------------------------
>--*------------------*---------------------*-----------
>-4------------------2-------------------4-5------------
>-4------------------2-------------------4-5------------
>-2------------------0-------------------2-5------------
>-------------------------------------------------------

C
>-8p5-----------------------------------|---------------------------------------->
>-----8-5-8p5-8p5-8p5-8b--8b--885-------|---------------------------------------->
>--------------------------------75v\-|--7p5-5-7p5-5-------5---5-5-5----------->
>---------------------------------------|-----7-----7--7p5-5-5---5-5-5----------->
>---------------------------------------|-----------------7----7--7-7--7-5------->
>---------------------------------------|----------------------------------8v\->

B
>--------------------------------------------------------------------------------
>----------------------*--------------------*-----------------*------------------
>---------------------4--------------------2-----------------2-------------------
>---------------------4--------------------2-----------------2-------------------
>---------------------2--------------------0-----------------0---------------<<<-
>----------------------------------------------------------------------------<<<-

C
>-------------------------------------13p10-13p10-13p10-->
>///10v--10v--10v-10v-13p10--13b\-------2-times----/-->
>--------------------------12---------------------------->
>-------------------------------------------------------->
>-------------------------------------------------------->
>-------------------------------------------------------->
  
B
>-------------------------------------------------------->
>-------------------------------------------------------->
>----*------------------------*--------*----------------->
>-5-3----------------------5-7------5-3------------------>
>-5-3----------------------5-7------5-3------------------>
>-3-1----------------------3-5------3-1------------------>

C
>--13p10----------------------------------------------------|
>--------13-10-13p10-13p10-13p10-13bv13b--131310-----------|
>-------------------------------------------------1210v\--|
>-----------------------------------------------------------|
>-----------------------------------------------------------|
>-----------------------------------------------------------|

B
>----------------------------------------------------------->
>----------------------------------------------------------->
>---------------------------------*------------------------->
>------------------------------5-7-------------------------->
>------------------------------5-7-------------------------->
>------------------------------3-5-------------------------->

C
>----------------------------------------------------------------|
>----------------10-13131013-10----------------------------10\-|
>--12p10--1012p10--------------1210-12p10--10--10------101210\-|
>-------12-------------------------------12--12--121012----------|
>----------------------------------------------------------------|
>----------------------------------------------------------------|
                                             pm........
solo continues here. I didnt have enough skills to tab it further. Sorry.

B
>------------------------------------------------------------------>
>---*--------------------------------*----------------------------->
>--7--------------------------------5------------------------------>
>--7--------------------------------5------------------------------>
>--5--------------------------------3------------------------------>
>------------------------------------------------------------------>

B&C
>-------------------------------->
>---*----*------*----*----*----*->
>--4----2----4-5----4----2----2-->
>--4----2----4-5----4----2----2-->
>--2----0----2-3----2----0----0-->
>-------------------------------->
end of solo

B&C
>------------------------->
>------------------------->
>-----*-----*-----*-----*->
>--5-3---5-7---5-3---5-7-->
>--5-3---5-7---5-3---5-7-->
>--3-1---3-5---3-1---3-5-->


there it is!! Hope there arent many mistakes...
mail me if something bugs you. kanka@jippii.fi
and... i almost forgot. the acoustic part is from jiihootabs.cjb.net.
but it's the way i play it, so... i hope jiihoo doesn't get pissed off.

Visit www.directTABS.com for more free tablature!


Add comment: