All tabs: 1331485
We love you! Do you like us?
Bands » Nofx » Stand By Me » Guitar tab

Stand By Me by Nofx guitar tab

This is the final page that leads you directly to the Guitar Pro tab, drum tab, bass guitar tab, piano chord, etc you've chosen. This page provides information concerning Stand By Me guitar tab such as its format, type of tab or chord, upload date, number of views, number of downloads and rating of this tab provided by thetabsbest.com users.

If the tab you have selected is a downloadable one (mostly these are Nofx Guitar Pro tabs), you need to insert so called "captcha" code and click "download" button. In case the code is correct you will be redirected to download page where your Stand By Me gp4 file will be prepared. If you have entered wrong "captcha" code, you will be asked to insert it once again to get your Stand By Me guitar tab.

If you browse all Nofx tabs or open the list of tabs and chords for Stand By Me, you can see there are not only Guitar Pro tabs. Guitar tabs and chords, piano & power tabs, drum tabs, bass tabs - they all can be not only in Guitar Pro file format, but also in txt. In this case no special program is needed to read the tab. All you need to do it to open such Stand By Me tab and you will see it displayed. If you wish, you can download our free tabs in txt.

thetabsbest.com tries to expand tabs database, adding new and hot songs as well as old and beloved melodies, so our archive could suit any person. Also we try to add chords and files for different music instruments, for example, you can find Nofx acoustic guitar tabs, piano chords or power tabs. Many songs like Stand By Me have not only Stand By Me guitar tab type, but provide wide selection of chords and tabs for all instruments. We also try to add more Nofx Guitar Pro tabs as they can bear data for whole band including sheet music.

Our newest addition - Nofx lyrics - is viewed the same. Select "lyrics" in the list of the tabs and chords and the text will be displayed on the next page.

File info:


Share it:

Rate it:
Rating: 0
Band nameNofx »
Song nameStand By Me »
Tab typeGuitar tab »
Added06/06/2008
Size3.45 Kb
File formattxt
Views/Loads1/3

Sponsored links:
Wrong code.

Text of tab

   

HottestTabs [http://www.hottesttabs.com]

NOFX - Stand By Me

tabbed my Michael "Gloopy" Guelpa







(bass intro) (verse also)

e-------------------------|-----------------|------------------------------|----------------------

B-------------------------|-----------------|------------------------------|----------------------

G-------------------------|-----------------|--------8-------------10------|----------------------

D-------------------------|-----------------|-----88---8------1010----10---|----------------------

A-1-x-1-x-x-1-x-1-3-1h3p1-|---------5-4-3-1-|-4s6--------6-6s8-----------8-|--1-x-1-x-x-1-x-1-x-1-

E-------------------------|-3-x-3-1---------|------------------------------|----------------------



(in comes the guitar)

e-------------------------|-x33-------------|----------------------------------------------------

B-3x-3x--xx--3x-3x--------|-x33-x4----------|----------------------------------------------------

G-3x-3x--xx--3x-3x--------|-x33-------------|-----8---8--------------10----10--------------------

D-3x-3x--xx--3x-3x--------|-x33-------------|---8---8---8---8-----10----10----10---10---back to--

A-1x-1x--xx--1x-1x--------|-----------------|-6-----------6-----8----------------8------bar 1----

E-------------------------|-----------------|----------------------------------------------------



back to bass intro/verse x2



(fill on bar 4 1st time)

E-----------------------

B-----------------------

G-3s4-3p1---3s4-3-3p1---

D---------3----------3--

A-----------------------

E-----------------------



(fill on bar 2 second time)

E-x33---------------

B-x33---------------

G-x33---------------

D-x33---------------

A-------------------

E-------------------



(fill on bar 3 second time)

E-------------------------

B-x88-x88--x11----------3-       1 = 10

G-x88-x88--x11----------3hold

D-x88-x88--x11----------3-

A-x66-x66--x88----------1-

E-------------------------





Time to Punk it up \o/ - for this just chop up the powerchords with a bit of distortion but try to keep that ska kind

of feel to it missing every other note and then hammering down on the offbeat.



1= 10

 Bb G Eb F

E--------------------------- 

B-3---8-1-------------------

G-3---8-1-------------------

D-3-5-8-1-------------------

A-1-5-6-8-------------------

E---3-----------------------

                   Bb                      G                          

So Darling Darling Stand By Me, Oh Wont you stand be me,



             Eb               F              Bb

oh won't you stand, won't you stand stand by me    (repeat) 



          Bb            G

When the Night has come. And the Land is Dark

         Eb          F               Bb   

And the moon is the only light we'll see

        Bb                     G        

i won't cry no i won't cry no i won't shed a tear

         Eb         F              Bb

just as long as you f*kin stand by me



                   Bb                      G                          

So Darling Darling Stand By Me, Oh Wont you stand be me, 



             Eb               F              Bb

oh won't you stand, won't you stand stand by me    (repeat)





When the sky, that we look upon

crumbles and falls

and the mountains tumble to the sea.

i wont cry no i wont cry no i wont be afraid

just as long as you f*kin stand by me



Darling Darling......





Do it fletcher (solo)





Darling Darling......


Add comment: