All tabs: 1331485
We love you! Do you like us?
Bands » Nofx » Release The Hostages » Guitar tab

Release The Hostages by Nofx guitar tab

This is the final page that leads you directly to the Guitar Pro tab, drum tab, bass guitar tab, piano chord, etc you've chosen. This page provides information concerning Release The Hostages guitar tab such as its format, type of tab or chord, upload date, number of views, number of downloads and rating of this tab provided by thetabsbest.com users.

If the tab you have selected is a downloadable one (mostly these are Nofx Guitar Pro tabs), you need to insert so called "captcha" code and click "download" button. In case the code is correct you will be redirected to download page where your Release The Hostages gp4 file will be prepared. If you have entered wrong "captcha" code, you will be asked to insert it once again to get your Release The Hostages guitar tab.

If you browse all Nofx tabs or open the list of tabs and chords for Release The Hostages, you can see there are not only Guitar Pro tabs. Guitar tabs and chords, piano & power tabs, drum tabs, bass tabs - they all can be not only in Guitar Pro file format, but also in txt. In this case no special program is needed to read the tab. All you need to do it to open such Release The Hostages tab and you will see it displayed. If you wish, you can download our free tabs in txt.

thetabsbest.com tries to expand tabs database, adding new and hot songs as well as old and beloved melodies, so our archive could suit any person. Also we try to add chords and files for different music instruments, for example, you can find Nofx acoustic guitar tabs, piano chords or power tabs. Many songs like Release The Hostages have not only Release The Hostages guitar tab type, but provide wide selection of chords and tabs for all instruments. We also try to add more Nofx Guitar Pro tabs as they can bear data for whole band including sheet music.

Our newest addition - Nofx lyrics - is viewed the same. Select "lyrics" in the list of the tabs and chords and the text will be displayed on the next page.

File info:


Share it:

Rate it:
Rating: 0
Band nameNofx »
Song nameRelease The Hostages »
Tab typeGuitar tab »
Added06/06/2008
Size5.62 Kb
File formattxt
Views/Loads8/3

Sponsored links:
Wrong code.

Text of tab

   
-------------------------------------------------------------------------------
                        RELEASE THE HOSTAGES - Nofx
-------------------------------------------------------------------------------

BY:JONNY APPLESEED
RYTHYM NOT TABBED

INTRO PART1:
GUITAR 1&2:
e|--5--3--3--1----5--3--3--1---|
B|--5--3--3--1----5--3--3--1---|
G|--5--5--3--1----5--5--3--1---|
D|--7--5--5--3----7--5--5--3---|
A|--7--3--5--3----7--3--5--3---|
E|--5-----3--1----5-----3--1---|

:PART2:
GUITAR 1&2: X2 FAST PALM MUTE
e|----------------------------------------|
B|----------------------------------------|
G|----------------------------------------|
D|--[---PALM MUTED---------PALM MUTED---]-|
A|--7-7-7-7-10-10-7-5---7-7-7-7-10-10-7-5-|
E|--5-5-5-5--8--8-5-3---5-5-5-5--8--8-5-3-|

:PART 3:
GUITAR 1: X4 FAST PALM MUTE
e|----------------------------------------|
B|----------------------------------------|
G|----------------------------------------|
D|--[---PALM MUTED---------PALM MUTED---]-|
A|--7-7-7-7-10-10-7-5---7-7-7-7-10-10-7-5-|
E|--5-5-5-5--8--8-5-3---5-5-5-5--8--8-5-3-|

GUITAR 2: X2
e|-------------------------------------------------------------------|
B|-------------------------------------------------------------------|
G|-6-6-6-6-6-6-6-6-5-5-5-5-5-5-5-5--4-4-4-4-4-4-4-4------------------|
D|-X-X-X-X-X-X-X-X-X-X-X-X-X-X-X-X--X-X-X-X-X-X-X-X-7-7-7-7-7-7-7-7--|
A|-4-4-4-4-4-4-4-4-3-3-3-3-3-3-3-3--2-2-2-2-2-2-2-2-X-X-X-X-X-X-X-X--|
E|--------------------------------------------------5-5-5-5-5-5-5-5--|

VERSE 1:PART1: "STOP!..."
GUITAR 1&2: X2
e|---------------------------------|
B|---------------------------------|
G|---------------------------------|
D|-3-3-3-3-5-5-5-5-2-2-2-2-7-7-7-7-|
A|-3-3-3-3-5-5-5-5-2-2-2-2-7-7-7-7-|
E|-1-1-1-1-3-3-3-3-0-0-0-0-5-5-5-5-|

:PART2:
GUITAR 1&2: X2
e|---------------------------------|
B|---------------------------------|
G|---------5-5-5-5-----------------|
D|-7-7-7-7-5-5-5-5-5-5-5-5-3-3-3-3-|
A|-7-7-7-7-3-3-3-3-5-5-5-5-3-3-3-3-|
E|-5-5-5-5---------3-3-3-3-1-1-1-1-|

:PART 3:
GUITAR 1: X2                         GUITAR 2: X2
e|---------------------------------| e|---------------------------------|
B|---------------------------------| B|---------------------------------|
G|---------5-5-5-5-----------------| G|-6-6-6-6-5-5-5-5-4-4-4-4---------|
D|-7-7-7-7-5-5-5-5-5-5-5-5-3-3-3-3-| D|-X-X-X-X-X-X-X-X-X-X-X-X-7-7-7-7-|
A|-7-7-7-7-3-3-3-3-5-5-5-5-3-3-3-3-| A|-4-4-4-4-3-3-3-3-2-2-2-2-X-X-X-X-|
E|-5-5-5-5---------3-3-3-3-1-1-1-1-| E|-------------------------5-5-5-5-|

CHORUS: "SEEMS LIKE......."
GUITAR 1&2:
e|------------------------------------------------------------------------->
B|------------------------------------------------------------------------->
G|------------------------------------------------------------------------->
D|-10-10-10-10-12-12-12-12-14-14-14-14-14-14-14-12-12-12-10-10-10-12-12-12->
A|--8--8--8--8-10-10-10-10-12-12-12-12-12-12-12-10-10-10--8--8--8-10-10-10->
E|------------------------------------------------------------------------->

e|-------------------------------------------------|
B|-------------------------------------------------|
G|-------------------------------------------------|
D|-------------------12-12-10-10-10-10-12-12-12-12-|
A|-10-10-10-10-10-10-10-10--8--8--8--8-10-10-10-10-|
E|--8--8--8--8--8--8-------------------------------|

BRIDGE:
GUITAR 1: X4
e|--------------------------------------------------------------------|
B|--------------------------------------------------------------------|
G|-12-12-12-X-X-X-10-10-10-10-X-X-X--12-12-12-X-X-X-10-10-10-10-X-X-X-|
D|-10-10-10-X-X-X--8--8--8--7-X-X-X--10-10-10-X-X-X--8--8--8--7-X-X-X-|
A|--------------------------------------------------------------------|
E|--------------------------------------------------------------------|

GUITAR 2: STARTS ON GUITAR 1'S 2ND TIME THROUGH:
e|--------------------------------------------------------------------|
B|--------------------------------------------------------------------|
G|-12-12-12-X-X-X-10-10-10-10-X-X-X--12-12-12-X-X-X-10-10-10-10-X-X-X-|
D|-10-10-10-X-X-X--8--8--8--7-X-X-X--10-10-10-X-X-X--8--8--8--7-X-X-X-|
A|--------------------------------------------------------------------|
E|--------------------------------------------------------------------|

CHORUS 2:
GUITAR 1&2
e|--------------------------------------------------------->
B|--------------------------------------------------------->
G|-[-----PALM-MUTE--------PALM-MUTE--------PALM MUTE-----]->
D|-3-3-3-3-5-5-5-5-7-7-7-7-7-7-7-7-5-5-5-5-3-3-3-3-5-5-5-5->
A|-3-3-3-3-5-5-5-5-7-7-7-7-7-7-7-7-5-5-5-5-3-3-3-3-5-5-5-5->
E|-1-1-1-1-3-3-3-3-5-5-5-5-5-5-5-5-3-3-3-3-1-1-1-1-3-3-3-3->

e|-------------------------------------|
B|-------------------------------------|
G|-5-5-5-5-5-5-5-5---------------------|
D|-5-5-5-5-5-5-5-5-5-5-5-5-3-3-3-3--5--|
A|-3-3-3-3-3-3-3-3-5-5-5-5-3-3-3-3--5--|
E|-----------------3-3-3-3-1-1-1-1--3--|

OUTRO:
GUITAR 1: X2                          3RD TIME
e|----------------------------------|---------------------------------------|
B|----------------------------------|---------------------------------------|
G|5-5-5-5---------------------------|-5-5-5-5-------------------------------|
D|5-5-5-5-5-5-5-5-3-3-3-3-3-3-3-3-3-|-5-5-5-5-5-5-5-6-6-6-6-2-2-2-2-4-4-4-4-|
A|3-3-3-3-5-5-5-5-3-3-3-3-3-3-3-3-3-|-3-3-3-3-5-5-5-6-6-6-6-2-2-2-2-4-4-4-4-|
E|--------3-3-3-3-1-1-1-1-1-1-1-1-1-|---------3-3-3-4-4-4-4-0-0-0-0-2-2-2-2-|

GUITAR2: ALL LITTLE SOLO'S THAT I DON'T KNOW!

QUESTIONS OR CORRECTIONS PUNKJ@HOTMAIL.COM

=============================================================================


Add comment: