All tabs: 1331485
We love you! Do you like us?
Bands » Nofx » Antennaes » Bass tab

Antennaes by Nofx bass tab

This is the final page that leads you directly to the Guitar Pro tab, drum tab, bass guitar tab, piano chord, etc you've chosen. This page provides information concerning Antennaes bass tab such as its format, type of tab or chord, upload date, number of views, number of downloads and rating of this tab provided by thetabsbest.com users.

If the tab you have selected is a downloadable one (mostly these are Nofx Guitar Pro tabs), you need to insert so called "captcha" code and click "download" button. In case the code is correct you will be redirected to download page where your Antennaes gp4 file will be prepared. If you have entered wrong "captcha" code, you will be asked to insert it once again to get your Antennaes bass tab.

If you browse all Nofx tabs or open the list of tabs and chords for Antennaes, you can see there are not only Guitar Pro tabs. Guitar tabs and chords, piano & power tabs, drum tabs, bass tabs - they all can be not only in Guitar Pro file format, but also in txt. In this case no special program is needed to read the tab. All you need to do it to open such Antennaes tab and you will see it displayed. If you wish, you can download our free tabs in txt.

thetabsbest.com tries to expand tabs database, adding new and hot songs as well as old and beloved melodies, so our archive could suit any person. Also we try to add chords and files for different music instruments, for example, you can find Nofx acoustic guitar tabs, piano chords or power tabs. Many songs like Antennaes have not only Antennaes bass tab type, but provide wide selection of chords and tabs for all instruments. We also try to add more Nofx Guitar Pro tabs as they can bear data for whole band including sheet music.

Our newest addition - Nofx lyrics - is viewed the same. Select "lyrics" in the list of the tabs and chords and the text will be displayed on the next page.

File info:


Share it:

Rate it:
Rating: 0
Band nameNofx »
Song nameAntennaes »
Tab typeBass tab »
Added06/05/2008
Size1.79 Kb
File formattxt
Views/Loads1/0

Sponsored links:
Wrong code.

Text of tab

   
I'm thinkin of tabbing the whole album, but its to late to it all in one tab so I'll 
tab then all seperatly

email- Chosenfro68@yahoo.com
tabber- Jamie McDonald


Play in this exact order

[-----------------------------------------]
[-----------------------------------------]
[-3-333333-3-33333-0-000-------3-33333333-]   Play Twice
[------------------------3-3333-----------]

                              (Lone Pause)
----------------------------------------------------------------------|
-3-3333---------------------------------------------------------------|
--------3-333---------------------------------------------------------|
--------------3-333333333---------------------------------------------|

[---------------------------------------------------------]
[---------------------------------------------------------]
[-3-333333333-3-333333333-3-33333333-0-000------3-3333333-]  X2
[------------------------------------------3-333----------]

------------------------------------------------------------------------|
-3-333------------------------------------------------------------------|
------3-333-------------------------------------------------------------|
------------3-3-33-33-33x33---------------------------------------------|

-1/5~--7~--9~~~~~~-----------------------------------------------------|
-----------------------------------------------------------------------|
---------------------------3-3333333-0-000-------3-3333333-0-000-------|
-------------------------------------------3-333-----------------3-333-|

------------------------------------------------------------|
-----------3-33333333---------------------------------------|
-3-3333333-----------3-333-----------2~~~-3~~~~~~~~~~~~~~---|
---------------------------3-3333-5~~-----------------------|


Thats all play it exasxtly like that


Add comment: