All tabs: 1331485
We love you! Do you like us?
Bands » Nirvana » Whole Bleach » Guitar tab

Whole Bleach by Nirvana guitar tab

This is the final page that leads you directly to the Guitar Pro tab, drum tab, bass guitar tab, piano chord, etc you've chosen. This page provides information concerning Whole Bleach guitar tab such as its format, type of tab or chord, upload date, number of views, number of downloads and rating of this tab provided by thetabsbest.com users.

If the tab you have selected is a downloadable one (mostly these are Nirvana Guitar Pro tabs), you need to insert so called "captcha" code and click "download" button. In case the code is correct you will be redirected to download page where your Whole Bleach gp4 file will be prepared. If you have entered wrong "captcha" code, you will be asked to insert it once again to get your Whole Bleach guitar tab.

If you browse all Nirvana tabs or open the list of tabs and chords for Whole Bleach, you can see there are not only Guitar Pro tabs. Guitar tabs and chords, piano & power tabs, drum tabs, bass tabs - they all can be not only in Guitar Pro file format, but also in txt. In this case no special program is needed to read the tab. All you need to do it to open such Whole Bleach tab and you will see it displayed. If you wish, you can download our free tabs in txt.

thetabsbest.com tries to expand tabs database, adding new and hot songs as well as old and beloved melodies, so our archive could suit any person. Also we try to add chords and files for different music instruments, for example, you can find Nirvana acoustic guitar tabs, piano chords or power tabs. Many songs like Whole Bleach have not only Whole Bleach guitar tab type, but provide wide selection of chords and tabs for all instruments. We also try to add more Nirvana Guitar Pro tabs as they can bear data for whole band including sheet music.

Our newest addition - Nirvana lyrics - is viewed the same. Select "lyrics" in the list of the tabs and chords and the text will be displayed on the next page.

File info:


Share it:

Rate it:
Rating: 0
Band nameNirvana »
Song nameWhole Bleach »
Tab typeGuitar tab »
Added06/05/2008
Size66.39 Kb
File formattxt
Views/Loads3/0

Sponsored links:
Wrong code.

Text of tab

   
tab submitted by: Southsidesk8er1

Nirvana
Bleach

1.  Blew
2.  Floyd the Barber
3.  About A Girl
4.  School
5.  Love Buzz
6.  Paper Cuts
7.  Negative Creep
8.  Scoff
9.  Swap Meet
10. Mr. Moustache
11. Siftings
12. Big Cheese
13. Downer 

Blew 
_____________________________________________________________________________

TUNING: 

Tune down 1 whole step and to drop D

INTRO
e----------------------------------------------------------------------------
b----------------------------------------------------------------------------
g----------------------------------------------------------------------------
d--0--3--5--6--6--5--3--0--5--5--3--0--3--5--6--6--5--3--0--5--5--3----------
a--0--3--5--6--6--5--3--0--5--5--3--0--3--5--6--6--5--3--0--5--5--3----------
e--0--3--5--6--6--5--3--0--5--5--3--0--3--5--6--6--5--3--0--5--5--3----------
 
VERSE
e----------------------------------------------------------------------------
b----------------------------------------------------6-----------------6-----
g------------------)-(-------------------------------4-----------------4-----
d-----3--5--5--5--5--(5)--3--3/5--5--3~~---53/5--5--5-------53/5--5--5-----
a--5-------------------------------------------------------------------------
e--------------------------------------------------------0----------------0--

e----------------------------------------------------------------------------
b----------------------------------------------------6-----------------6-----
g------------------)-(-------------------------------4-----------------4-----
d-----3--5--5--5--5--(5)--3--3/5--5--3-----53/5--5--5-------53/5--5--5-----
a--5------------------------------------5------------------------------------
e--------------------------------------------------------0----------------0--

CHORUS
e----------------------------------------------------------------------------
b----------------------------------------------------------------------------
g----------------------------------------------------------------------------
d--3--5--5--5--3--3-3--3--5--5--3--6-----------------------------------------
a--3--5--5--5--3--3-3--3--5--5--3--6-----------------------------------------
e--3--5--5--5--3--3-3--3--5--5--3--6-----------------------------------------

play that 2 times, then
e----------------------------------------------------------------------------
b----------------------------------2-2-2-2-2-2-2-2-2-2-2-2-2-2-2-2-----------
g----------------------------------2-2-2-2-2-2-2-2-2-2-2-2-2-2-2-2-----------
d--3--5--5--5--3--3-3--3--5--5--3--2-2-2-2-2-2-2-2-2-2-2-2-2-2-2-2-----------
a--3--5--5--5--3--3-3--3--5--5--3--0-0-0-0-0-0-0-0-0-0-0-0-0-0-0-0-----------
e--3--5--5--5--3--3-3--3--5--5--3--------------------------------------------

SOLO
e----)---)(---------------------------------)---------)--------)-------------
b--10--10--(10)--10--10--10--10--8--0--8--10--(10)--10~~~10--10--10--10--8--0
g----------------------------------------------------------------------------
d----------------------------------------------------------------------------
a----------------------------------------------------------------------------
e----------------------------------------------------------------------------

e----------------------------------------------------------------------------
b-----------------8--10--10/13--12~~-(12)--12/15--15--15/17--17--15----------
g--8--10--8--10------------------------------------------------------15--15--
d----------------------------------------------------------------------------
a----------------------------------------------------------------------------
e----------------------------------------------------------------------------

e----------------------------------------------------------------------------
b--18-(18)-18--18--18--18--18---(18)--18~~~~18~~~~18--16--1615--1513--15---
g-----------------(18)----(18)--(18)-----------------------------------------
d----------------------------------------------------------------------------
a----------------------------------------------------------------------------
e----------------------------------------------------------------------------

e----------------------------------------------------------------------------
b--13^15^13^0--11/12--13--13~--11--------------------------------------------
g---------------------------------1211--11--9--10--10--10--8--10--10--10--8-
d----------------------------------------------------------------------------
a----------------------------------------------------------------------------
e----------------------------------------------------------------------------

e----------------------------------------------------------------------------
b-----------------------------------------------------------------11--11--11-
g------------------8--8--10--10--8-----------------8--10--10--10-------------
d--108--0--8--10-------------------10--8--10--10----------------------------
a----------------------------------------------------------------------------
e----------------------------------------------------------------------------

e----------------------------------------------------------------------------
b--11--11--11--11--11--11---------------------------------------------------
g----------------------------------------------------------------------------
d----------------------------------------------------------------------------
a----------------------------------------------------------------------------
e----------------------------------------------------------------------------
 
OUTRO
e----------------------------------------------------------------------------
b----------------------------------------------------------------------------
g----------------------------------------------------------------------------
d--0--3--5--6--6--0---0--3--5--6--6--0---------------------------------------
a--0--3--5--6--6--0---0--3--5--6--6--0---------------------------------------
e--0--3--5--6--6--0---0--3--5--6--6--0---------------------------------------

play that 7 times then end with
e----------------------------------------------------------------------------
b----------------------------------------------------------------------------
g----------------------------------------------------------------------------
d--0--3--5--6--6/----------------------------------------------------------
a--0--3--5--6--6/----------------------------------------------------------
e--0--3--5--6--6/----------------------------------------------------------


_____________________________________________________________________________


Floyd The Barber 

_____________________________________________________________________________

TUNING: 

Tune down 1/2 a step

INTRO/VERSE
e----------------------------------------------------------------------------
b----------------------------------------------------------------------------
g--------PM...-----------PM...----------PM...--------------------------------
d--3--3--2-2-2-----3--3--2-2-2----3--3--2-2-2----3--3--2-2-2-----------------
a--3--3--2-2-2-----3--3--2-2-2----3--3--2-2-2----3--3--2-2-2-----------------
e--1--1--0-0-0-----1--1--0-0-0----1--1--0-0-0----1--1--0-0-0-----------------

e----------------------------------------------------------------------------
b----------------------------------------------------------------------------
g--------PM...-----------PM...----------PM...--------------------------------
d--3--3--2-2-2-----3--3--2-2-2----3--3--2-2-2----3--3--2-2-2-----------------
a--3--3--2-2-2-----3--3--2-2-2----3--3--2-2-2----3--3--2-2-2-----------------
e--1--1--0-0-0-----1--1--0-0-0----1--1--0-0-0----1--1--0-0-0-----------------

CHORUS
e----------------------------------------------------------------------------
b----------------------------------------------------------------------------
g--6--6--------5--5-------------6--6--------5--5-----------------------------
d--6--6--7--7--5--5--6--6-------6--6--7--7--5--5--6--6-----------------------
a--4--4--7--7--3--3--6--6-------4--4--7--7--3--3--6--6-----------------------
e--------5--5--------4--4-------------5--5--------4--4-----------------------

e----------------------------------------------------------------------------
b----------------------------------------------------------------------------
g--6--6--------5--5-------------6--6--------5--5-----------------------------
d--6--6--7--7--5--5--6--6-------6--6--7--7--5--5--6--6-----------------------
a--4--4--7--7--3--3--6--6-------4--4--7--7--3--3--6--6-----------------------
e--------5--5--------4--4-------------5--5--------4--4-----------------------

SOLO
e----------------------------------------------------------------------------
b----------------------------------------------------------------------------
g----------------------------------------------------------------------------
d----------------------------------------------------------------------------
a---------------------0--1--3~~--3--1--0--1--3-------------------------------
e--1~~--1--0--1--3-----------------------------------------------------------

play that 3 times, then
e----------------------------------------------------------------------------
b----------------------------------------------------------------------------
g----------------------------------------------------------------------------
d----------------------------------------------------------------------------
a-------------------------3/5--5/6--6/7--7-----------------------------------
e--1~~--1-0-1--3--3--0-------------------------------------------------------


_____________________________________________________________________________
 

About A Girl 

_____________________________________________________________________________

TUNING: Regular tuning

INTRO/VERSE
The chords are Em and G but the strumming roughly is
e--------------3-----------------------3-----------------------3-------------
b--------------0--0--0-----0-----------0--0--0-----0-----------0--0--0-------
g--------0--------0--0-----0-----0--------0--0-----0-----0--------0--0-------
d--2--2--0--------0--0--2-----2--0--------0--0--2-----2--0--------0--0-------
a--2--2--------------0--2-----2--------------0--2-----2--------------0-------
e--0--0-----3-----------0-----0-----3-----------0-----0-----3----------------
 
e----------------3-----------------------------------------------------------
b----0-----------0--0--0-----------------------------------------------------
g----0-----0--------0--0-----------------------------------------------------
d-2-----2--0--------0--0-----------------------------------------------------
a-2-----2--------------0-----------------------------------------------------
e-0-----0-----3--------------------------------------------------------------

CHORUS
e----------------------------------------------------------------------------
b--6--6--6----------------------------------------6--6--6--------------------
g--6--6--6-----6--6--(0)---------------------(0)--6--6--6----6--6--(0)-------
d--6--6--6-----6--6--(0)---4--4-----4---4-4--(0)--6--6--6----6--6--(0)-------
a--4--4--4-----------------4--4--x--4---4-4-------4--4--4--------------------
e-----------4--------------2--2--x--2---2-2----------------4-----------------

e----------------------------------------------------------------------------
b----------------------------------------------------------------------------
g----------------------------------------------------------------------------
d--4--4-----4--4-4-----------------------------------------------------------
a--4--4-----4--4-4-----------------------------------------------------------
e--2--2--0--2--2-2-----------------------------------------------------------
Play that twice

e--0--0--0-----------------0--0--0-------------------------------------------
b--0--0--0------/9--9--9---2--2--2---5--5--5---0-----------------------------
g--x--x---------/9--9--9---2--2--2---5--5--5---0-----------------------------
d--2--2---------/9--9--9---2-----2---5--5--5---0-----------------------------
a--2--2---------/7--7--7---0-----2---3--3--3---0-----------------------------
e--0--0----------------------------------------------------------------------

SOLO
e----------------------------------------------------------------------------
b---------------------------9--9/12-------12---------------------------------
g-------------------7--7/9--9--9/12--12---12---------------------------------
d-------------5--7--7--7/9--9--9/12--12---12---------------------------------
a------5--7------------------------------------------------------------------
e--0-------------------------------------------------------------------------
Play that 4 times.


_____________________________________________________________________________


School 

_____________________________________________________________________________

TUNING: Regular tuning

INTRO
e----------------------------------------------------------------------------
b----------------------------------------------------------------------------
g----------------------------------------------------------------------------
d----------------------------------------------------------------------------
a----------------------------------------------------------------------------
e--0~~~~~----------(0)~~~~~~-------------------------------------------------

VERSE
e----------------------------------------------------------------------------
b----------------------------------------------------------------------------
g----------------------------------------------------------------------------
d----------------------------------------------------------------------------
a------------)r-----)r----------------)--------------------------------------
e--0--0--0--5---0--5--0--0--0--0--0--5---------------------------------------

CHORUS
e----------------------------------0---0---0-0--0---0-0-0-0-0-0--------------
b----------------------------------0---0---0-0--0---3-3-3-3-3-3--------------
g--5---5--5-5--5-------------------x---x---x-x--x-0-2-2-2-2-2-2--------------
d--5---5--5-5--5-0--7-7-7-7-7-7----2---2---2-2--2-0-0-0-0-0-0-0--------------
a--3---3--3-3--3-0--7-7-7-7-7-7----2---2---2-2--2----------------------------
e-------------------5-5-5-5-5-5----0---0---0-0--0----------------------------

e----------------------------------------------------------------------------
b----------------------------------------------------------------------------
g--5----5--5-5--5------------------------------------------------------------
d--5----5--5-5--5-0-7-7-7-7-7-7----------------------------------------------
a--3----3--3-3--3-0-7-7-7-7-7-7----------------------------------------------
e-------------------5-5-5-5-5-5----------------------------------------------
BRIDGE
e----------------------------------------------------------------------------
b-------------------------13-13/---------------------------------------------
g-------------------12----12-12/---------------------------------------------
d-------------11----11-------------------------------------------------------
a-------------10--x----------------------------------------------------------
e--0--0--0-------------------------------------------------------------------

SOLO
e---)--)(----)(--------------------------------------------------------------
b--2--2-(2)-2-(2)----------------------------------7-------------------------
g--2--2-(2)-2-(2)-0------------2-0-2-(2)-0-2/7-7-7-7-7-9-(11)----0----------
d-------------------2-0-2--------------------------------------/9---9^7^0----
a----------------------------------------------------------------------------
e-------------------------3/0------------------------------------------------
 
e----------------------------------------------------------------------------
b-------------)------------------)-------------------------------------------
g--------2-2-2-2-2-2~~~~~-----0-2-0-0-2-(0)-------------2---2/7-7-7-7-9-7----
d--9^7^0------------------0-0---------------2-------2-5---5------------------
a-------------------------------------------------5--------------------------
e---------------------------------------------5-0----------------------------

e------------------)---)-10-10-10^9^7----7-----------------------------------
b--11-8---8^10-8^10--10---------------10---10-10-10^8------------------------
g-------0---------------------------------------------9-7-7-9-7-7-9-9-9~~~~~-
d----------------------------------------------------------------------------
a----------------------------------------------------------------------------
e----------------------------------------------------------------------------

e----------------------------------------------------------------------------
b-------------------)--------------------------------------------------------
g--9-7-7-76-6-64-4--2-2^0-2~~~~~~~~~~~-------------------------------------
d----------------------------------------------------------------------------
a----------------------------------------------------------------------------
e-----------------------------------------(12)------------------------------


_____________________________________________________________________________
 

Love Buzz 

_____________________________________________________________________________

TUNING: 

This was recorded tuned up half a step.
The way it is tabbed here sounds 1/2 step lower than it is on the CD.

INTRO (bass tabbed for guitar)
e----------------------------------------------------------------------------
b----------------------------------------------------------------------------
g----------------------------------------------------------------------------
d----------------------------------------------------------------------------
a------------------4^5^4-----------------4^5^4---------------4^5^4-----------
e--5--x--3--5--6----------5--x--3--5--6---------5---3--5--6---------5--------

e----------------------------------------------------------------------------
b----------------------------------------------------------------------------
g----------------------------------------------------------------------------
d----------------------------------------------------------------------------
a------------4^5^4-----------------------------------------------------------
e--3--5--6-------------------------------------------------------------------

then
e----------------------------------------------------------------------------
b--2-----------------2---------------2-2-2-----------------2-2-2-------------
g--2-----------------2---------------2-2-2-----------------2-2-2-------------
d--2-----------------2---------------2-2-2-----------------2-2-2-------------
a--0-----------------0---------------0-0-0-----------------0-0-0-------------
e----------------------------------------------------------------------------

e-----0--0--5^3^0-------------------------0--0--5^3^0------------------------
b--2----------------5^3^0--------------2----------------5^3^0----------------
g--2-----------------------4^2^0-------2------------------------4^2^0--------
d--2-----------------------------------2-------------------------------------
a--0-----------------------------------0-------------------------------------
e----------------------------------------------------------------------------

e-----0--0--5^3^0-------------------------0--0--5^3^0------------------------
b--2----------------5^3^0--------------2----------------5^3^0----------------
g--2-----------------------4^2^0-------2------------------------4^2^0--------
d--2-----------------------------------2-------------------------------------
a--0-----------------------------------0-------------------------------------
e----------------------------------------------------------------------------

e----------------------------------------------------------------------------
b----------------------------------------------------------------------------
g--------------6^7^6--------------6^7^6--------------6^7^6--------------6^7^6
d--7--5--7--8---------7--5--7--8---------7--5--7--8---------7--5--7--8-------
a----------------------------------------------------------------------------
e----------------------------------------------------------------------------

e-----0--0--5^3^0-------------------------0--0--5^3^0------------------------
b--2----------------5^3^0--------------2----------------5^3^0----------------
g--2-----------------------4^2^0-------2------------------------4^2^0--------
d--2-----------------------------------2-------------------------------------
a--0-----------------------------------0-------------------------------------
e----------------------------------------------------------------------------

e-----0--0--5^3^0------------------------------------------------------------
b--2----------------5^3^0--------------2-------------------------------------
g--2-----------------------4^2^0-------2-------------------------------------
d--2-----------------------------------2-------------------------------------
a--0-----------------------------------0-------------------------------------
e-------------------------------------------(5)/17---------------------------

CHORUS
e----------------------------------------------------------------------------
b--2-----------------2---------------2-2-2-2------------------2--------------
g--2-----------------2---------------2-2-2-2------------------2--------------
d--2-----------------2---------------2-2-2-2------------------2--------------
a--0-----------------0---------------0-0-0-0------------------0--------------
e----------------------------------------------------------------------------

1st SOLO
e----------------------------)-----------------------------------------------
b--/8--8--7--7--7--7--5--7--7--7--7--7--7--5--5---------)--3--0--------------
g------------------------------------------------7--7--5----------)-----)----
d----------------------------------------------------------------7--7--7-----
a----------------------------------------------------------------------------
e----------------------------------------------------------------------------

e----------------------------------------------------------------------------
b-----------------------------)----------------------------------------------
g--97--6--5--0-----0-----5--7--7--6-----------------------------------------
d----------------0-----7--------------5--7---------------)-------------------
a----------------------7--------------------6--3--0--3--7~~--7--5--3---------
e---------------------------------------------------------------------5--3---

e----------------------------------------------------------------------------
b------------------------------6/8--8/10--108-------------------------------
g-------------------2--4--4/5--5/7--7/-9---97-------------------------------
d-----------2--2/4-----------------------------------------------------------
a------)---------------------------------------------------------------------
e--5--5--5-------------------------------------------------------------------

2nd SOLO
e----------------------------------12-12-12-12-12-12-12-12-12-12-12-12-------
b---------)-------------------13/--13-13-13-13-13-13-13-13-13-13-13-13-------
g-----5--7--7--5-------------------------------------------------------------
d--7--------------7--5--7--7-------------------------------------------------
a----------------------------------------------------------------------------
e----------------------------------------------------------------------------

e----------------------------------------------------------------------------
b----------------------------------------------------------------------------
g----------------------------------------------------------------------------
d------------)--)-----------------------------------------9--9-10-10-10-12---
a--3--5--3--5--5--5--------------------0--0------5--7--7--9--9-10-10-10-12---
e--------------------3--3--2--0--2--3--------/7------------------------------

e----------------------------------------------------------------------------
b--(3)-----------------------------------------------------------------------
g--(2)-----------------------------------------------------------------------
d------12-12-14-15-15-15-15-17----------------------------------------------
a------12-12-14-15-15-15-17-17----------------------------------------------
e----------------------------------------------------------------------------

END
e----------------------------------------------------------------------------
b--2--2-2-2-2-2-2-2-2-2-2-2-2-2-2-2-2--2-------------------------------------
g--2--2-2-2-2-2-2-2-2-2-2-2-2-2-2-2-2--2-------------------------------------
d--2--2-2-2-2-2-2-2-2-2-2-2-2-2-2-2-2--2-------------------------------------
a--0--0-0-0-0-0-0-0-0-0-0-0-0-0-0-0-0--0-------------------------------------
e----------------------------------------------------------------------------
   PM...................................


_____________________________________________________________________________


Paper Cuts 

_____________________________________________________________________________

TUNING: 

Tune down 1/2 step.

INTRO (palm muted)
e----------------------------------------------------------------------------
b----------------------------------------------------------------------------
g----------------------------------------------------------------------------
d----------------------------------------------------------------------------
a--2--2--2--2--2--2---2--2--2--2---------------------------------------------
e--1--1--1--1--1--1-*-1--1--1--1--x/x----------------------------------------
   
play that 3 times, then
e----------------------------------------0-----0-----------------------------
b-------------------------------------0--------------------------------------
g----------------------------------3--------3--------------------------------
d----------------------------------------------------------------------------
a--2--2--2--2--2--2---2--2--2--2---------------------------------------------
e--1--1--1--1--1--1-*-1--1--1--1---------------------------------------------
   PM..............   PM........

VERSE
e----------------------------------------0-----0-----------------------------
b-------------------------------------0--------------------------------------
g----------------------------------3--------3--------------------------------
d----------------------------------------------------------------------------
a--2--2--2--2--2--2---2--2--2--2---------------------------------------------
e--1--1--1--1--1--1-*-1--1--1--1---------------------------------------------
   PM..............   PM........


CHORUS (E5 with variations below)
e--------0----0-------0-------0----------------------------------------------
b-----0------------0---------------------------------------------------------
g--3-------3----3--------3---------------------------------------------------
d----------------------------------------------------------------------------
a----------------------------------------------------------------------------
e----------------------------------------------------------------------------

"I said so...."
e----------------------------------------------------------------------------
g----------------------------------------------------------------------------
b----------------------------------------------------------------------------
d--4--5--5--6--6--7--7--8--98--8--8-----------------------------------------
a--4--5--5--6--6--7--7--8--98--8--8-----------------------------------------
e--2--3--3--4--4--5--5--6--76--6--6-----------------------------------------

Play that 4 times, then
e----------------------------------------------------------------------------
b----------------------------------------------------------------------------
g----------------------------------------------------------------------------
d--76-6-6---98-8-8---76-6-6---98-8-8-------------------------------------
a--76-6-6---98-8-8---76-6-6---98-8-8-------------------------------------
e--54-4-4---76-6-6---54-4-4---76-6-6-------------------------------------

Play that times 2, then
e----------------------------------------------------------------------------
b----------------------------------------------------------------------------
g----------------------------------------------------------------------------
d--4-4--4--4-4--4--4--4------------------------------------------------------
a--4-4--4--4-4--4--4--4------------------------------------------------------
e--2-2--2--2-2--2--2--2------------------------------------------------------
   PM..................


_____________________________________________________________________________


Negative Creep 

_____________________________________________________________________________

TUNING: 

Tune down to drop D

INTRO
e----------------------------------------------------------------------------
b----------------------------------------------------------------------------
g----------------------------------------------------------------------------
d----------------------------------------------------------------------------
a----------------------------------------------------------------------------
e--0--0--/12--0--0--0--0-12--0--0--/12--0--0--0--0-12----------------------

e----------------------------------------------------------------------------
b----------------------------------------------------------------------------
g----------------------------------------------------------------------------
d----------------------------------------------------------------------------
a----------------------------------------------------------------------------
e--0--0--/12--0--0--0--0-12--0--0--/12--0--0--0--0-12----------------------
play that 2 times, then

VERSE
e----------------------------------------------------------------------------
b----------------------------------------------------------------------------
g----------------------------------------------------------------------------
d----------------------------------------------------------------------------
a----------------------------------------------------------------------------
e--0--0--/12--0--0--0--0-12--0--0--/12--0--0--0--0-12----------------------

e----------------------------------------------------------------------------
b----------------------------------------------------------------------------
g----------------------------------------------------------------------------
d----------------------------------------------------------------------------
a--------------------------)~~~----------------------------------------------
e--0--0--/12--0--0--0--0--5--------------------------------------------------

e----------------------------------------------------------------------------
b----------------------------------------------------------------------------
g----------------------------------------------------------------------------
d----------------------------------------------------------------------------
a----------------------------------------------------------------------------
e--0--0--/12--0--0--0--0-12--0--0--/12--0--0--0--0-12----------------------

e----------------------------------------------------------------------------
b----------------------------------------------------------------------------
g----------------------------------------------------------------------------
d---------------------------)~~----------------------------------------------
a-------------------------14-------------------------------------------------
e--0--0--/12--0--0--0--0-----------------------------------------------------

e----------------------------------------------------------------------------
b----------------------------------------------------------------------------
g----------------------------------------------------------------------------
d----------------------------------------------------------------------------
a----------------------------------------------------------------------------
e--0--0--/12--0--0--0--0-12--0--0--/12--0--0--0--0-12----------------------

e----------------------------------------------------------------------------
b----------------------------------------------------------------------------
g----------------------------------------------------------------------------
d----------------------------------------------------------------------------
a--------------------------)~~~----------------------------------------------
e--0--0--/12--0--0--0--0--3--------------------------------------------------

e----------------------------------------------------------------------------
b----------------------------------------------------------------------------
g----------------------------------------------------------------------------
d----------------------------------------------------------------------------
a----------------------------------------------------------------------------
e--0--0--/12--0--0--0--0-12--0--0--/12--0--0--0--0-12----------------------

e----------------------------------------------------------------------------
b----------------------------------------------------------------------------
g----------------------------------------------------------------------------
d----------------------------------------------------------------------------
a----------------------------------------------------------------------------
e--0--0--/12--0--0--0--0--0--------------------------------------------------

CHORUS
e----------------------------------------------------------------------------
b----------------------------------------------------------------------------
g----------------------------------------------------------------------------
d----------------------------------------------------------------------------
a--7--7--5--4--4--4-0--7--7--5--8--8--5--0-----------------------------------
e-----------4--4--4-0--7--7--------------------------------------------------
play that 8 times.

 
_____________________________________________________________________________


Scoff 

_____________________________________________________________________________

TUNING: 

Regular tuning

INTRO/VERSE
e----------------------------------------------------------------------------
b----------------------------------------------------------------------------
g----------------------------------------------------------------------------
d----------------------------------------------------------------------------
a--4--4--3--2--4--4--3---4--4--3--2--4--4--3---------------------------------
e--2--2--1--0--2--2--1---2--2--1--0--2--2--1---------------------------------
   PM.................   PM.................
         
Play that 16 times, then
e----------------------------------------------------------------------------
b----------------------------------------------------------------------------
g----------------------------------------------------------------------------
d----------------------------------------------------------------------------
a--4--4--3--0---4--4--3--0---4--4--3--0---4--4--3--0---4--4--3--0------------
e--2--2---------2--2---------2--2---------2--2---------2--2------------------

e----------------------------------------------------------------------------
b----------------------------------------------------------------------------
g----------------------------------------------------------------------------
d----------------------------------------------------------------------------
a--4--4--3--0---4--4--3--0---4--4--3--0---4--4--3--0---4--4--3--0------------
e--2--2---------2--2---------2--2---------2--2---------2--2------------------
 
e----------------------------------------------------------------------------
b----------------------------------------------------------------------------
g----------------------------------------------------------------------------
d----------------------------------------------------------------------------
a--4--4--3--0---4--4--3--0---4--4--3--0---4--4--3--0---4--4--5--5--6--6--7--7
e--2--2---------2--2---------2--2---------2--2---------2--2--3--3--4--4--5--5

e----------------------------------------------------------------------------
b----------------------------------------------------------------------------
g--5--5--5-5-5--7--7-7-7-----------------------------------------------------
d--5--5--5-5-5--7--7-7-7-----------------------------------------------------
a--3--3--3-3-3--5--5-5-5-----------------------------------------------------
e--------------------------5--6--5--3----------------------------------------

Play that 8 times, then
e----------------------------------------------------------------------------
b----------------------------------------------------------------------------
g----------------------------------------------------------------------------
d--9--9--8--7--9--9--8---9--9--8--7--9--9--8---9--9--8--7--9--9--8-----------
a--7--7--6--5--7--7--6---7--7--6--5--7--7--6---7--7--6--5--7--7--6-----------
e----------------------------------------------------------------------------

e----------------------------------------------------------------------------
b----------------------------------------------------------------------------
g----------------------------------------------------------------------------
d--9--9--8--7----------------------------------------------------------------
a--7--7--6--5----------------------------------------------------------------
e--------------12-----------------------------------------------------------

SOLO
e-----------5------------5------------5------------5-------------------------
b-----------5------------5------------5------------5-------------------------
g---------5------------5------------5------------5---------------------------
d----------------------------------------------------------------------------
a-----3------------3------------3------------3-------------------------------
e--2------------2------------2------------2----------------------------------
 
e----------------------------------------------------------------------------
b----------------------------------------------------------------------------
g--7-6-7-6-7-6-7/9-9-8-9-8-9-8-9/11-11---------------------------------------
d--7-6-7-6-7-6-7/9-9-8-9-8-9-8-9/11-11---------------------------------------
a----------------------------------------------------------------------------
e----------------------------------------------------------------------------
 
e----------------------------------------------------------------------------
b----------------------------------------------------------------------------
g--7-6-7-6-7-6-7/9-9-8-9-8-9-8-9/11-11---------------------------------------
d--7-6-7-6-7-6-7/9-9-8-9-8-9-8-9/11-11---------------------------------------
a----------------------------------------------------------------------------
e----------------------------------------------------------------------------

_____________________________________________________________________________


Swap Meet 

_____________________________________________________________________________

TUNING: 

Tune down to drop D.

INTRO
e----------------------------------------------------------------------------
b----------------------------------------------------------------------------
g----------------------------------------------------------------------------
d--------3--------2---------------3--------2---------------------------------
a--------3--------2---------------3--------2---------------------------------
e--0--3-----0--3----3^2^0---0--3-----0--3-----3^2^0--------------------------

play that 2 times, then
e----------------------------------------------------------------------------
b----------------------------------------------------------------------------
g----------------------------------------------------------------------------
d-------3--------2--------------3--------2-----------------------------------
a-------3--------2--------------3--------2-----------------------------------
e--0-3-----0--3----3^2^0---0-3-----0--3-----3^2^0----------------------------
                                      
VERSE
e----------------------------------------------------------------------------
b----------------------------------------------------------------------------
g----------------------------------------------------------------------------
d-------3--------2--------------3--------2-----------------------------------
a-------3--------2--------------3--------2-----------------------------------
e--0-3-----0--3----3^2^0---0-3-----0--3-----3^2^0----------------------------

play that 4 times
CHORUS
e----------------------------------------------------------------------------
b----------------------------------------------------------------------------
g--------------3-3-3-3-3-3---------------------------------------------------
d--5-5-5-5-5-5-3-3-3-3-3-3---------------------------------------------------
a--5-5-5-5-5-5-1-1-1-1-1-1------------------------3--------------------------
e--5-5-5-5-5-5---------------0--3--2--1--0--1--3-----0--3--2--1--0--1--0-----

e----------------------------------------------------------------------------
b----------------------------------------------------------------------------
g--------------3-3-3-3-3-3---------------------------------------------------
d--5-5-5-5-5-5-3-3-3-3-3-3---------------------------------------------------
a--5-5-5-5-5-5-1-1-1-1-1-1------------------------3--------------------------
e--5-5-5-5-5-5---------------0--3--2--1--0--1--3-----0--3--2--1--0--1--0-----

e----------------------------------------------------------------------------
b----------------------------------------------------------------------------
g--------------3-3-3-3-3-3---------------------------------------------------
d--5-5-5-5-5-5-3-3-3-3-3-3---3-3--2-2--1-1-1-1-------------------------------
a--5-5-5-5-5-5-1-1-1-1-1-1---3-3--2-2--1-1-1-1-------------------------------
e--5-5-5-5-5-5---------------3-3--2-2--1-1-1-1--/(12)-----------------------

SOLO
e----------------------------------------------------------------------------
b------------------------7^5^0--7^5^0--7^5^0--7^5^0--------------------------
g----------------------------------------------------------------------------
d--5---5----5--4--5--4-------------------------------5--4--5--4--5--4--5--4--
a----4---4--5--4--5--4-------------------------------5--4--5--4--5--4--5--4--
e----------------------------------------------------------------------------

e------------------------------------------------------0---------------------
b--7^5^0----7^5^0----0--------------------------7^5^0-----0--7^5^0-----------
g---------6--------6-----------------------------------6------------6--------
d-----------------------5--4--5--4--5--4--5--4-------------------------------
a----------------------------------------------------------------------------
e----------------------------------------------------------------------------

e----------------------------------------------------------------------------
b--------------------------7^5^0--7^5^0--------------------------------------
g----------------------------------------------------------------------------
d--5--4--5--4--5--4--5--4----------------------------------------------------
a-----------4--5-------------------------------------------------------------
e--------------------------------------------/(12)--------------------------
after the solo, play the verse riff palm muted.

ENDING
e----------------------------------------------------------------------------
b----------------------------------------------------------------------------
g----------------------------------------------------------------------------
d--3-3--2-2--1-1-1-1---------0-----------------------------------------------
a--3-3--2-2--1-1-1-1---------0-----------------------------------------------
e--3-3--2-2--1-1-1-1--/(12)-0-----------------------------------------------

 
_____________________________________________________________________________


Mr. Moustache 

_____________________________________________________________________________

TUNING: 

Regular tuning

INTRO
e----------------------------------------------------------------------------
b----------------------------------------------------------------------------
g----------------------------------------------------------------------------
d----------------------------------------------------------------------------
a-----2-----------------------1----------------------------------------------
e--3-----3--2--1--0--1--2--3-----3--2--1--0--1--2----------------------------
play that 4 times, then

VERSE
e----------------------------------------------------------------------------
b--------PM........---------PM........---------PM........---------PM........-
g--0--0---------------0--0---------------0--0---------------0--0-------------
d--0--0---------------0--0---------------0--0---------------0--0-------------
a--x--x---------------x--x---------------x--x---------------x--x-------------
e--3--3--0--1--2--2---3--3--0--1--2--2---3--3--0--1--2--2---3--3--0--1--2--2-
 
play that 3 times, then
e----------------------------------------------------------------------------
b----------------------------------------------------------------------------
g----------------------------------------------------------------------------
d----------------------------------------------------------------------------
a-----2-----------------------1----------------------------------------------
e--3-----3--2--1--0--1--2--3-----3--2--1--0--1--2----------------------------

e----------------------------------------------------------------------------
b----------------------------------------------------------------------------
g----------------------------------------------------------------------------
d----------------------------------------------------------------------------
a-----2-----------------------1----------------------------------------------
e--3-----3--2--1--0--1--2--3-----3--2--1--0--1--2----------------------------

e----------------------------------------------------------------------------
b--------PM........---------PM........---------PM........---------PM........-
g--0--0---------------0--0---------------0--0---------------0--0-------------
d--0--0---------------0--0---------------0--0---------------0--0-------------
a--x--x---------------x--x---------------x--x---------------x--x-------------
e--3--3--0--1--2--2---3--3--0--1--2--2---3--3--0--1--2--2---3--3--0--1--2--2-

e----------------------------------------------------------------------------
b--------PM........---------PM........---------PM........---------PM........-
g--0--0---------------0--0---------------0--0---------------0--0-------------
d--0--0---------------0--0---------------0--0---------------0--0-------------
a--x--x---------------x--x---------------x--x---------------x--x-------------
e--3--3--0--1--2--2---3--3--0--1--2--2---3--3--0--1--2--2---3--3--0--1--2--2-

CHORUS
e----------------------------------------------------------------------------
b--------5--5--5------------------------5--5--5------------------------------
g--4--x--5--5--5------------------4--x--5--5--5------------------------------
d--4--x--5--5--5---5-5-5-5-5-5-5--4--x--5--5--5---5-5-5-5-5------------------
a--2--x--3--3--3---5-5-5-5-5-5-5--2--x--3--3--3---5-5-5-5-5------------------
e------------------3-3-3-3-3-3-3------------------3-3-3-3-3------------------

e----------------------------------------------------------------------------
b--------5--5--5------------------------5--5--5------------------------------
g--4--x--5--5--5------------------4--x--5--5--5------------------------------
d--4--x--5--5--5---5-5-5-5-5-5-5--4--x--5--5--5---5-5-5-5-5------------------
a--2--x--3--3--3---5-5-5-5-5-5-5--2--x--3--3--3---5-5-5-5-5------------------
e------------------3-3-3-3-3-3-3------------------3-3-3-3-3------------------
 
e----------------------------------------------------------------------------
b----------------------------------------------------------------------------
g--------------------------------5-5-5-5-5/8-8-8-8-8-8-8-8-------------------
d--------------------------------5-5-5-5-5/8-8-8-8-8-8-8-8-------------------
a--5--7-7--5/7--7--7-7--5/7--7---3-3-3-3-3/6-6-6-6-6-6-6-6-------------------
e--3--5-5--3/5--5--5-5--3/5--5-----------------------------------------------

e----------------------------------------------------------------------------
b----------------------------------------------------------------------------
g--------------------------------5-5-5-5-5/8-8-8-8-8-8-8-8-------------------
d--------------------------------5-5-5-5-5/8-8-8-8-8-8-8-8-------------------
a--5--7-7--5/7--7--7-7--5/7--7---3-3-3-3-3/6-6-6-6-6-6-6-6-------------------
e--3--5-5--3/5--5--5-5--3/5--5-----------------------------------------------


_____________________________________________________________________________


Siftings 

_____________________________________________________________________________

TUNING: 

Regular tuning

INTRO
e----------------------------------------------------------------------------
b----------------------------------------------------------------------------
g----------------------------------------------------------------------------     
d----------------------------------------------------------------------------
a----------------------------------------------------------------------------
e--0--0--0--0----0--0--0--0----0--0--0--0----0--0--0--0----------------------
   PM..................................................
 
e----------------------------------------------------------------------------
b----------------------------------------------------------------------------
g----------------------------------------------------------------------------
d-------------3--------------2--1--0-----------------3-----------------------
a--PM.....----3---PM.....----2--1--0-------PM.....---3-----PM........--------
e--0--0--0--------0--0--0------------------0--0--0---------0--0--0--0--------
Play twice

VERSE
e----------------------------------------------------------------------------
b----------------------------------------------------------------------------
g----------------------------------------------------------------------------
d-----------3------------2--1--0-------------3------------2--1--0------------
a--PM.....--3--PM.....---2--1--0----PM.....--3--PM.....---2--1--0------------
e--0--0--0-----0--0--0--------------0--0--0-----0--0--0----------------------
 
then
e----------------------------------------------------------------------------
b----------------------------------------------------------------------------
g----------------------------------------------------------------------------
d-------------5~~~~~-------------5~~~~~------------------------------------
a--PM.....----5~~~~~--PM.....----5~~~~~------------------------------------
e--0--0--0-------------0--0--0-----------------------------------------------
play that 4 times, then

CHORUS
e----------------------------------------------------------------------------
b----------------------------------------------------------------------------
g--5--5-5--5-----------------------5--5-5--5---------------------------------
d--5--5-5--5-0---)--)-----------0--5--5-5--5-0---)--)-----------0------------
a--3--3-3--3-0--7--7--75--5--5-0--3--3-3--3-0--7--7--75--5--5-0------------
e---------------5--5--53--3--3-----------------5--5--53--3--3--------------

play that 3 times, then
e----------------------------------------------------------------------------
b----------------------------------------------------------------------------
g--5--5-5--5-----------------------5--5-5--5----4----------------------------
d--5--5-5--5-0---)--)-----------0--5--5-5--5-0--4----------------------------
a--3--3-3--3-0--7--7--75--5--5-0--3--3-3--3-0--2----------------------------
e---------------5--5--53--3--3----------------------------------------------

SOLO
e----------------------------------------------------------------------------
b--------------)~~~----------------------------------------------------------
g-------------11-------------------------------------------------------------
d-----------------------------------)-12-(----------------------)~~~---------
a---------------------------------12------12------------------12-------------
e--0--0--0-------------0--0--0-------------------0--0--0---------------------

e----------------------------------------------------------------------------
b----------------------------------------------------------------------------
g----------------------------------------------------------------------------
d--------------)-12-(----------------)~~~--------------)-12-(----------------
a------------12------12------------12----------------12------12--------------
e--0--0--0---------------0--0--0-----------0--0--0---------------------------

e----------------------------------------------------------------------------
b----------------------------------------------------------------------------
g----------------------------------------------------------------------------
d--------------)-12-(-------------------)-12-(-------------------------------
a------------12------12---------------12------12-----------------------------
e--0--0--0------------------0--0--0------------------0--0--0-----------------

e----------------------------------------------------------------------------
b----)-----------------------------------------------------------------------
g--11---11-------------------------------------------------------------------
d---------------12----------)--------12----)------------12---------)--12-----
a-----------12-----(12)---12---(12)------12---(12)---12----(12)--12------12-
e----------------------------------------------------------------------------

e----------------------------------------------------------------------------
b----)---------------------------------------------------0---2--x------------
g--11---(11)--(11)--0--2--3--4--5--6--7--9--9--9--7--0----2---------------0-
d------------------------------------------------------------------2--2----
a----------------------------------------------------------------------------
e----------------------------------------------------------------------------

e----------------------------------------------------------------------------
b--5--5--5---5--(5)4--42--0------)--------------)---0--0-------------------
g--5--5--5---5--(5)4--4-------1--2---(2)--2--2--2/3--0----------------------
d----------------------------------------------------------------------------
a----------------------------------------------------------------------------
e----------------------------------------------------------------------------

e--------)-----------------------------------)-------------------------------
b--12--14--14--12--0--------------------)--17-------0------------------)-----
g---------------------12--12--14--12--14---17---14--0--7--7--9--9----(9)-----
d------------------------------------------------------------------0---------
a----------------------------------------------------------------------------
e----------------------------------------------------------------------------

e----------------------------------------------------------------------------
b-------------)------------0-------------------------------------------------
g-----0--5--14--14--12--9--0--7--9--10--10--107--2--------------------------
d--x-----5-----------------------------------------------)-------------------
a------------------------------------------------------12----(12)------------
e----------------------------------------------------------------------------

e----------------------------------------------------------------------------
b----------------------------------------------------------------------------
g----------------------------------------------------------------------------
d----)----------------)-------------12----------------------12---------------
a--12---12--(12)----12---(12)---12------(12)--12--(12)--12------(12)---------
e----------------------------------------------------------------------------

e----------------------------------------------------------------------------
b------------------------------------------------0---------------------------
g------------------------------------------------0---------------------------
d----)--12------------------)--------------------0---------------------------
a--12-------(12)----------12-------------------------------------------------
e----------------------------------------------------------------------------


_____________________________________________________________________________


Big Cheese 

_____________________________________________________________________________

TUNING: 

Regular tuning

INTRO
e----------------------------------------------------------------------------
b----------------------------------------------------------------------------
g----------------------------------------------------------------------------
d----------------------------------------------------------------------------
a----------------------------------------------------------------------------
e--8--7------8--7------8--7------8--7-----8--7------8--7------8--7----

e----------------------------------------------------------------------------
b---------------------------0------------------0-----------------------------
g---------------------------0------------------0-----------------------------
d-------------10--9-----------0---10--9----------0---------------------------
a-------------10--9--NH..---------10--9--NH..--------------------------------
e--8--7-------8--7--7--7----------8--7--7--7--------------------------------

e----------------------------------------------------------------------------
b----------------0------------------0----------------------------------------
g----------------0------------------0----------------------------------------
d--10--9-----------0---10--9----------0--------------------------------------
a--10--9--NH..---------10--9--NH..-------------------------------------------
e---8--7--7--7----------8--7--7--7-------------------------------------------
 
VERSE
e----------------------------------------------------------------------------
b----------------0------------------0----------------------------------------
g----------------0------------------0----------------------------------------
d--10--9-----------0---10--9----------0--------------------------------------
a--10--9--NH..---------10--9--NH..-------------------------------------------
e---8--7--7--7----------8--7--7--7-------------------------------------------
play that 4 times, then

CHORUS
e----------------------------------------------------------------------------
a----------------------------------------------------------------------------
d----------------------------------------------------------------------------
g--4--4--4--4-4-4--4--4--4--5--5--4--4--4--4-4-4--4--4--4--5--5--------------
b--4--4--4--4-4-4--4--4--4--5--5--4--4--4--4-4-4--4--4--4--5--5--------------
e--2--2--2--2-2-2--2--2--2--3--3--2--2--2--2-2-2--2--2--2--3--3--------------
 
play that 2 times, then after the second time chorus is played
e----------------------------------------------------------------------------
b----------------------------------------------------------------------------
g-----0------------------0---------------------------------------------------
d--4----1~~-0---------4----1~~-0---------------------------------------------
a--2-----------3--0---2-----------3--0---------------------------------------
e----------------------------------------------------------------------------

play that 2 times, then
e----------------------------------------------------------------------------
b--12--12--13-13-13-13-10--1210--10--12-1210--10--7------------------------
g--11--11--12-12-12-12--9--11-9---9--10-10-9---9--6------------------------
d---9---9--10-10-10-10--7---9-7---7---8--8-7---7--4------------------------
a----------------------------------------------------------------------------
e----------------------------------------------------------------------------

play that 3 times, then
e----------------------------------------------------------------------------
b--12--12--13-13-13-13-10--13-12-13-12-13-12-12-0----------------------------
g--11--11--12-12-12-12--9--12-11-12-11-12-11-11-0----------------------------
d---9---9--10-10-10-10--7--10--9-10--9-10--9--9------------------------------
a----------------------------------------------------------------------------
e----------------------------------------------------------------------------

ENDING
e----------------------------------------------------------------------------
b----------------------------------------------------------------------------
g--PM.....------PM.....------PM.....------PM..-------------------------------
d--9--9--9--9---9--9--9--9---9--9--9--9---9--9--9----------------------------
a--9--9--9--9---9--9--9--9---9--9--9--9---9--9--9----------------------------
e--7--7--7--7---7--7--7--7---7--7--7--7---7--7--7----------------------------
 
play that 4 times, and end with
e----------------------------------------------------------------------------
b----------------------------------------------------------------------------
g----------------------------------------------------------------------------
d--9--8-7-6--------------------------------------------------------------
a--9--8-7-6--------------------------------------------------------------
e--7--6-5-4--------------------------------------------------------------


_____________________________________________________________________________


Downer 

_____________________________________________________________________________

TUNING: 

Regular tuning

INTRO
e----------------------------------------------------------------------------
b----------------------------------------------------------------------------
g----------------------------------------------------------------------------
d---------------5--5--5---------------5--5--5--------------------------------
a---------------3--3--3---------------3--3--3--------------------------------
e--0-0-0-0-0--------------0-0-0-0-0------------------------------------------

play that 2 times, after verse play
e----------------------------------------------------------------------------
b----------------------------------------------------------------------------
g----------------------------------------------------------------------------
d---------------5--5--5---------------5--5--5--------------------------------
a---------------3--3--3---------------3--3--3--------------------------------
e--0-0-0-0-0--------------0-0-0-0-0------------------------------------------

e----------------------------------------------------------------------------
b----------------------------------------------------------------------------
g----------------------------------------------------------------------------
d---------------5--5--5---------------5--5--5--------------------------------
a---------------3--3--3---------------3--3--3--------------------------------
e--0-0-0-0-0--------------0-0-0-0-0------------------------------------------

e----------------------------------------------------------------------------
b----------------------------------------------------------------------------
g----------------------------------------------------------------------------
d----------------------------------------------------------------------------
a--7-x-8-8-8-8-7-x-9-9-9-9--7-x-8-8-8-8-7-x-9-9-9-9--------------------------
e--5-x-6-6-6-6-5-x-7-7-7-7--5-x-6-6-6-6-5-x-7-7-7-7--------------------------

play that 2 times, then
e----------------------------------------------------------------------------
b----------------------------------------------------------------------------
g----------------------------------------------------------------------------
d---------------5--5--5---------------5--5--5--------------------------------
a---------------3--3--3---------------3--3--3--------------------------------
e--0-0-0-0-0--------------0-0-0-0-0------------------------------------------

play that 2 times, then
e----------------------------------------------------------------------------
b----------------------------------------------------------------------------
g-----------------------------------9--9--9--9-9-9--10-10-10-10-10-10--------
d--7--7--7--7-7-7--8--8--8--8-8-8---9--9--9--9-9-9--10-10-10-10-10-10--------
a--7--7--7--7-7-7--8--8--8--8-8-8---7--7--7--7-7-7---8--8--8--8--8--8--------
e--5--5--5--5-5-5--6--6--6--6-6-6--------------------------------------------

e----------------------------------------------------------------------------
b----------------------------------------------------------------------------
g-----------------------------------9--9--9--9-9-9--10-10-10-10-10-10--------
d--7--7--7--7-7-7--8--8--8--8-8-8---9--9--9--9-9-9--10-10-10-10-10-10--------
a--7--7--7--7-7-7--8--8--8--8-8-8---7--7--7--7-7-7---8--8--8--8--8--8--------
e--5--5--5--5-5-5--6--6--6--6-6-6--------------------------------------------
 
OUTRO
e----------------------------------------------------------------------------
b----------------------------------------------------------------------------
g----------------------------------------------------------------------------
d--------------5-5----------------5-5--------------5-5--------------5-5------
a--PM.......---3-3----PM.......---3-3---PM.......--3-3---PM.......--3-3------
e--0-0-0-0-0----------0-0-0-0-0---------0-0-0-0-0--------0-0-0-0-0-----------
        
e----------------------------------------------------------------------------
b----------------------------------------------------------------------------
g----------------------------------------------------------------------------
d----------------------------------------------------------------------------
a----------------------------------------------------------------------------
e--0-------------------------------------------------------------------------



PLEASE RATE THIS IN AND MY OTHER ONES IT TOOK ME 2 WHOLE YEARS TO TAB ALL OF THERE SONGS!!!

Visit www.directTABS.com for more free tablature!


Add comment: