All tabs: 1331485
We love you! Do you like us?
Bands » Lynyrd Skynyrd » On The Hunt » Bass tab

On The Hunt by Lynyrd Skynyrd bass tab

This is the final page that leads you directly to the Guitar Pro tab, drum tab, bass guitar tab, piano chord, etc you've chosen. This page provides information concerning On The Hunt bass tab such as its format, type of tab or chord, upload date, number of views, number of downloads and rating of this tab provided by thetabsbest.com users.

If the tab you have selected is a downloadable one (mostly these are Lynyrd Skynyrd Guitar Pro tabs), you need to insert so called "captcha" code and click "download" button. In case the code is correct you will be redirected to download page where your On The Hunt gp4 file will be prepared. If you have entered wrong "captcha" code, you will be asked to insert it once again to get your On The Hunt bass tab.

If you browse all Lynyrd Skynyrd tabs or open the list of tabs and chords for On The Hunt, you can see there are not only Guitar Pro tabs. Guitar tabs and chords, piano & power tabs, drum tabs, bass tabs - they all can be not only in Guitar Pro file format, but also in txt. In this case no special program is needed to read the tab. All you need to do it to open such On The Hunt tab and you will see it displayed. If you wish, you can download our free tabs in txt.

thetabsbest.com tries to expand tabs database, adding new and hot songs as well as old and beloved melodies, so our archive could suit any person. Also we try to add chords and files for different music instruments, for example, you can find Lynyrd Skynyrd acoustic guitar tabs, piano chords or power tabs. Many songs like On The Hunt have not only On The Hunt bass tab type, but provide wide selection of chords and tabs for all instruments. We also try to add more Lynyrd Skynyrd Guitar Pro tabs as they can bear data for whole band including sheet music.

Our newest addition - Lynyrd Skynyrd lyrics - is viewed the same. Select "lyrics" in the list of the tabs and chords and the text will be displayed on the next page.

File info:


Share it:

Rate it:
Rating: 0
Band nameLynyrd Skynyrd »
Song nameOn The Hunt »
Tab typeBass tab »
Added05/27/2008
Size3.34 Kb
File formattxt
Views/Loads1/1

Sponsored links:
Wrong code.

Text of tab

   
I am very sure this is right

Standard Tuning

> = Let ring

Intro
It's just an octive run

G --------4-2--------------  Once you do this, the next
D ------------4-2----------  2 is in the tab below it.
A --2---2---------4-2---2--
E -------------------------

Come in after the guitar does it 2 times

G ------------------------------------------  X6
D -------0-4-0------------------0-4-0-------
A --2--2-------4-0---------2--2-------4-0>--
E -----------------4-0-0-2------------------

G ---------------------------------------------------------------
D ---------------------------------------------------------------
A --9-8-7>--------5>--------------------7>--------5>-------------
E -----------7>--------5>--5-5-5-5-5-3-------7>--------5>--5--3--

G ------------------------------------------  X6
D -------0-4-0------------------0-4-0-------
A --2--2-------4-0---------2--2-------4-0>--
E -----------------4-0-0-2------------------

G ---------------------------------------------------------------
D ---------------------------------------------------------------
A --9-8-7>--------5>--------------------7>--------5>-------------
E -----------7>--------5>--5-5-5-5-5-3-------7>--------5>--5--3--

G ------------------------------------------  X2
D -------0-4-0------------------0-4-0-------
A --2--2-------4-0---------2--2-------4-0>--
E -----------------4-0-0-2------------------

G --------------------------------------------------  X4
D ----0---------------------------------------------
A --2---2-0-2>---5-----------------------------0-0--
E ------------------5-5--0-0--0-0-0--0-0--3-3-------

G -----------------------------------------------------------
D -----------------------------------------------------------
A -------7>---5>--------------------7>--------5>-------------
E --7>-------------5>--5-5-5-5-5-3-------7>--------5>--5--3--

G ------------------------------------------  X6
D -------0-4-0------------------0-4-0-------
A --2--2-------4-0---------2--2-------4-0>--
E -----------------4-0-0-2------------------

G ---------------------------------------------------------------
D ---------------------------------------------------------------
A --9-8-7>--------5>--------------------7>--------5>-------------
E -----------7>--------5>--5-5-5-5-5-3-------7>--------5>--5--3--

G ------------------------------------------------------------------
D ------------------------------------------------------------------
A --7>--------5>--------------------7>--------5>--------------------
E -------7>--------5>--5-5-5-5-5-3-------7>--------5-5-5-5-5-5-5-3--

G ------------------------------------------  X6 or intill song ends
D ------------------------------------------
A --7>--7-7>------------5>--5-5>------------
E ------------7>--7-7>------------5>--5-5>--


Tabbed by me, NeedlesKane   Enjoy!


Add comment: