All tabs: 1331485
We love you! Do you like us?
Bands » Korn » Somebody Someone » Bass tab

Somebody Someone by Korn bass tab

This is the final page that leads you directly to the Guitar Pro tab, drum tab, bass guitar tab, piano chord, etc you've chosen. This page provides information concerning Somebody Someone bass tab such as its format, type of tab or chord, upload date, number of views, number of downloads and rating of this tab provided by thetabsbest.com users.

If the tab you have selected is a downloadable one (mostly these are Korn Guitar Pro tabs), you need to insert so called "captcha" code and click "download" button. In case the code is correct you will be redirected to download page where your Somebody Someone gp4 file will be prepared. If you have entered wrong "captcha" code, you will be asked to insert it once again to get your Somebody Someone bass tab.

If you browse all Korn tabs or open the list of tabs and chords for Somebody Someone, you can see there are not only Guitar Pro tabs. Guitar tabs and chords, piano & power tabs, drum tabs, bass tabs - they all can be not only in Guitar Pro file format, but also in txt. In this case no special program is needed to read the tab. All you need to do it to open such Somebody Someone tab and you will see it displayed. If you wish, you can download our free tabs in txt.

thetabsbest.com tries to expand tabs database, adding new and hot songs as well as old and beloved melodies, so our archive could suit any person. Also we try to add chords and files for different music instruments, for example, you can find Korn acoustic guitar tabs, piano chords or power tabs. Many songs like Somebody Someone have not only Somebody Someone bass tab type, but provide wide selection of chords and tabs for all instruments. We also try to add more Korn Guitar Pro tabs as they can bear data for whole band including sheet music.

Our newest addition - Korn lyrics - is viewed the same. Select "lyrics" in the list of the tabs and chords and the text will be displayed on the next page.

File info:


Share it:

Rate it:
Rating: 0
Band nameKorn »
Song nameSomebody Someone »
Tab typeBass tab »
Added05/24/2008
Size3.14 Kb
File formattxt
Views/Loads2/1

Sponsored links:
Wrong code.

Text of tab

   
tuning:
de-tune all string a whole note down
F
C
G
D
A

h=hammer
*=let it ring
/=slide
~=bend the string up

intro    :11
F-------------------------
C-------------------------
G-------5*------5*---5~---     x8
D-------------------------
A--3*-3---33-3----3-------

verse    :32
F-----------------------------------
C--------------10*------------7*----
G--------12-------10-----8-------6--     x4
D--10--10---8*-------6--6--5*-------
A-----------------------------------

pre-chorus     :53
F-------------------------
C-------------------------
G-------5*------5*---5~---     x4
D-------------------------
A--3*-3---33-3----3-------

chorus   1:04
F------------------------------------------------------------
C------------------------------------------------------------
G------------------------------------------------------------     x1
D------------------------------------------------------------
A--3*---/7*----6*---/4*----3~3*-----/7*----6*----2*-----3~3--

F------------------------------------------------------------
C------------------------------------------------------------
G------------------------------------------------------------     x1
D------------------------------------------------------------
A--3*---/7*----6*---/4*----3~3*-----/7*----6*----2*----------

verse     1:24
F-----------------------------------
C--------------10*------------7*----
G--------12-------10-----8-------6--     x6
D--10--10---8*-------6--6--5*-------
A-----------------------------------

pre-chorus    1:56
F-------------------------
C-------------------------
G-------5*------5*---5~---     x4
D-------------------------
A--3*-3---33-3----3-------

chorus    2:07
F------------------------------------------------------------
C------------------------------------------------------------
G------------------------------------------------------------     x1
D------------------------------------------------------------
A--3*---/7*----6*---/4*----3~3*-----/7*----6*----2*-----3~3--

F------------------------------------------------------------
C------------------------------------------------------------
G------------------------------------------------------------     x1
D------------------------------------------------------------
A--3*---/7*----6*---/4*----3~3*-----/7*----6*----2*----------

rest   2:28

verse 2    2:36
F----------------------
C-----7*------7*----7--
G--5*-----5-5-----4----    x3
D----------------------
A----------------------

F----------------------
C-----7*------7*-------
G--5*-----5-5-----4*---    x1
D----------------------
A----------------------

outro   2:59
F------------------------
C------------------------
G------------------------     x12
D-------1----------1*----
A--2h3*--3*---2333---2*--

that's the song
please rate!!!        =)


Add comment: