All tabs: 1331485
We love you! Do you like us?
Bands » Korn » Blind » Guitar tab

Blind by Korn guitar tab

This is the final page that leads you directly to the Guitar Pro tab, drum tab, bass guitar tab, piano chord, etc you've chosen. This page provides information concerning Blind guitar tab such as its format, type of tab or chord, upload date, number of views, number of downloads and rating of this tab provided by thetabsbest.com users.

If the tab you have selected is a downloadable one (mostly these are Korn Guitar Pro tabs), you need to insert so called "captcha" code and click "download" button. In case the code is correct you will be redirected to download page where your Blind gp4 file will be prepared. If you have entered wrong "captcha" code, you will be asked to insert it once again to get your Blind guitar tab.

If you browse all Korn tabs or open the list of tabs and chords for Blind, you can see there are not only Guitar Pro tabs. Guitar tabs and chords, piano & power tabs, drum tabs, bass tabs - they all can be not only in Guitar Pro file format, but also in txt. In this case no special program is needed to read the tab. All you need to do it to open such Blind tab and you will see it displayed. If you wish, you can download our free tabs in txt.

thetabsbest.com tries to expand tabs database, adding new and hot songs as well as old and beloved melodies, so our archive could suit any person. Also we try to add chords and files for different music instruments, for example, you can find Korn acoustic guitar tabs, piano chords or power tabs. Many songs like Blind have not only Blind guitar tab type, but provide wide selection of chords and tabs for all instruments. We also try to add more Korn Guitar Pro tabs as they can bear data for whole band including sheet music.

Our newest addition - Korn lyrics - is viewed the same. Select "lyrics" in the list of the tabs and chords and the text will be displayed on the next page.

File info:


Share it:

Rate it:
Rating: 0
Band nameKorn »
Song nameBlind »
Tab typeGuitar tab »
Added05/23/2008
Size7.44 Kb
File formattxt
Views/Loads4/0

Sponsored links:
Wrong code.

Text of tab

   
Band: KoRn
Album: KoRn
Song: Blind
Instrument: Guitars
Tabbed by: Retarded_porcupine
E-mail: retarded_porcupine@hotmail.com

Yo guys, Ok i've done quite a few tabs and I researh them quite alot, our band has done this
and it sounds perfect. I play bass but I still know how to tab guitar. Oh yeah, You need 2 guitars
for this song otherwise you can't do it. I've seen the others people have wrote and haven't been
convinced by them. Oh well this ones right...

If you want correct bass tabs just e-mail me at -retarded_porcupine@hotmail.com-

Thanks

Retarded_porcupine

Little key:-
x = palm mute (and pluck)
m = mute (slap strings but keep hand there)

::Intro::

Guitar 1 does this chord until its chorus (you'll know when)
E--||-0000m--------------||
B--||-1111m--------------||
G--||-3333m--------------||
D--||--------------------||
A--||--------------------||
E--||--------------------||

After 7 of the above, Guitar 2 do this..
E--||--------------------||  x2
B--||--------------------||
G--||--------------------|| Wait for guitar 1 do to
D--||--------------------|| it once after first time
A--||--8--9--------------|| of guitar 2 doing beside,
E--||-07-08--------------|| then after second time do it again...

Then after 2 of them, Guitar 2 do:
E--||------------------||  x4
B--||------------------||
G--||------------------|| After first measure of guitar 1
D--||------------------|| doing his chord, guitar 2 do beside again..
A--||-02-03-02-03------||
E--||-02-03-02-03------||

On 4th of above 'ARE YOU READY!'
::Chorus::

Guitar 1 Chorus              Guitar 2 Chorus
E--||--------------0000---|| E--||------------------|| x4 for both guitars
B--||--------------1111---|| B--||------------------||
G--||--------------3333---|| G--||------------------|| 
D--||---------------------|| D--||------------------||
A--||-02-03-02-03---------|| A--||-------------1111-||
E--||-02-03-02-03---------|| E--||-02-03-02-03------||

::Break:: all instruments...

Then..

Guitar 1 Chorus 1            Guitar 2 Chorus 1
E--||--------------0000---|| E--||------------------|| x4 for both guitars
B--||--------------1111---|| B--||------------------||
G--||--------------3333---|| G--||------------------|| 
D--||---------------------|| D--||------------------||
A--||-02-03-02-03---------|| A--||-------------1111-||
E--||-02-03-02-03---------|| E--||-02-03-02-03------||

Guitar 1 Chorus 2            Guitar 2 Chorus 2
E--||--------------0000---|| E--||------------------|| x1 for both guitars
B--||--------------1111---|| B--||------------------||
G--||--------------3333---|| G--||------------------|| 
D--||---------------------|| D--||------------------||
A--||-00003-02-03---------|| A--||-------------1111-||
E--||-00003-02-03---------|| E--||-00003-02-03------||

Guitar 1 Chorus 1            Guitar 2 Chorus 1
E--||--------------0000---|| E--||------------------|| x3 for both guitars
B--||--------------1111---|| B--||------------------||
G--||--------------3333---|| G--||------------------|| 
D--||---------------------|| D--||------------------||
A--||-02-03-02-03---------|| A--||-------------1111-||
E--||-02-03-02-03---------|| E--||-02-03-02-03------||

::Verse::

Guitar 1                                  Guitar 2
E--||----------------------------------|| E--||----------------------------------|| x4 for both guitars
B--||----------------------------------|| B--||----------------------------------||
G--||-0ring-----------------12ring-----|| G--||----------------------------------||
D--||-0ring-----------------12ring-----|| D--||----------------------------------||
A--||-0ring-----------------12ring-----|| A--||-p0---0--0-0--0-h1---1--1-1-1-----||
E--||-0ring-----------------12ring-----|| E--||-p0---0--0-0--0-h1---1--1-1-1-----||

::Bridge::

Both guitars
E--||-----------------------------------------|| x2 for both guitars
B--||-----------------------------------------||
G--||-----------------------------------------|| At end of second time hold note...
D--||-----------------------------------------||
A--||-----------------------------------------||
E--||-0-0/100--000/1-6-0-0/100--000/1-4-------||

::Verse:: again x4 for both guitars

::Bridge:: again x2 for both guitars

Then...
'To burn, to burn, to burn deeper inside 22!'

::Chorus::

Guitar 1 Chorus 1            Guitar 2 Chorus 1
E--||--------------0000---|| E--||------------------|| x4 for both guitars
B--||--------------1111---|| B--||------------------||
G--||--------------3333---|| G--||------------------|| 
D--||---------------------|| D--||------------------||
A--||-02-03-02-03---------|| A--||-------------1111-||
E--||-02-03-02-03---------|| E--||-02-03-02-03------||

Guitar 1 Chorus 2            Guitar 2 Chorus 2
E--||--------------0000---|| E--||------------------|| x1 for both guitars
B--||--------------1111---|| B--||------------------||
G--||--------------3333---|| G--||------------------|| 
D--||---------------------|| D--||------------------||
A--||-00003-02-03---------|| A--||-------------1111-||
E--||-00003-02-03---------|| E--||-00003-02-03------||

Guitar 1 Chorus 1            Guitar 2 Chorus 1
E--||--------------0000---|| E--||------------------|| x3 for both guitars
B--||--------------1111---|| B--||------------------||
G--||--------------3333---|| G--||------------------|| 
D--||---------------------|| D--||------------------||
A--||-02-03-02-03---------|| A--||-------------1111-||
E--||-02-03-02-03---------|| E--||-02-03-02-03------||

::1st part of Interlude::

Guitar 1 does this
E--||-0000m--------------00000ring-----------|| x5
B--||-1111m--------------11111ring-----------||
G--||-3333m--------------33333ring-----------|| All other instruments break apart
D--||----------------------------------------|| from drums which do intro thing with ride symbol...
A--||----------------------------------------||
E--||----------------------------------------||

::2nd part of Interlude (same as verse)::

Guitar 1                                  Guitar 2
E--||----------------------------------|| E--||----------------------------------|| x4 for both guitars
B--||----------------------------------|| B--||----------------------------------||
G--||-0ring-----------------12ring-----|| G--||----------------------------------||
D--||-0ring-----------------12ring-----|| D--||----------------------------------||
A--||-0ring-----------------12ring-----|| A--||-p0---0--0-0--0-h1---1--1-1-1-----||
E--||-0ring-----------------12ring-----|| E--||-p0---0--0-0--0-h1---1--1-1-1-----||

Then afterwards...

Both guitars
E--||--------------------|| x1 for both guitars
B--||--------------------||
G--||--------------------||
D--||--------------------||
A--||--------1111--------||
E--||-3-3-33-------------||

::Chorus::

Guitar 1 Chorus 1            Guitar 2 Chorus 1
E--||--------------0000---|| E--||------------------|| x8 for both guitars
B--||--------------1111---|| B--||------------------||
G--||--------------3333---|| G--||------------------|| 
D--||---------------------|| D--||------------------||
A--||-02-03-02-03---------|| A--||-------------1111-||
E--||-02-03-02-03---------|| E--||-02-03-02-03------||

::Break::

::Outro::

Wait for bass to do his riff x2 then do...

Guitar 1                              Guitar 2
E--||------------------------------|| E--||---------|| Carry on until fade out
B--||------------------------------|| B--||---------||
G--||--10//2------2/10--------10//2|| G--||---------|| 
D--||------------------------------|| D--||--x------||
A--||------------------------------|| A--||---x-----||
E--||------------------------------|| E--||----x----||


Add comment: