All tabs: 1331485
We love you! Do you like us?
Bands » Kelly Rowland » Havent Told You » Guitar tab

Havent Told You by Kelly Rowland guitar tab

This is the final page that leads you directly to the Guitar Pro tab, drum tab, bass guitar tab, piano chord, etc you've chosen. This page provides information concerning Havent Told You guitar tab such as its format, type of tab or chord, upload date, number of views, number of downloads and rating of this tab provided by thetabsbest.com users.

If the tab you have selected is a downloadable one (mostly these are Kelly Rowland Guitar Pro tabs), you need to insert so called "captcha" code and click "download" button. In case the code is correct you will be redirected to download page where your Havent Told You gp4 file will be prepared. If you have entered wrong "captcha" code, you will be asked to insert it once again to get your Havent Told You guitar tab.

If you browse all Kelly Rowland tabs or open the list of tabs and chords for Havent Told You, you can see there are not only Guitar Pro tabs. Guitar tabs and chords, piano & power tabs, drum tabs, bass tabs - they all can be not only in Guitar Pro file format, but also in txt. In this case no special program is needed to read the tab. All you need to do it to open such Havent Told You tab and you will see it displayed. If you wish, you can download our free tabs in txt.

thetabsbest.com tries to expand tabs database, adding new and hot songs as well as old and beloved melodies, so our archive could suit any person. Also we try to add chords and files for different music instruments, for example, you can find Kelly Rowland acoustic guitar tabs, piano chords or power tabs. Many songs like Havent Told You have not only Havent Told You guitar tab type, but provide wide selection of chords and tabs for all instruments. We also try to add more Kelly Rowland Guitar Pro tabs as they can bear data for whole band including sheet music.

Our newest addition - Kelly Rowland lyrics - is viewed the same. Select "lyrics" in the list of the tabs and chords and the text will be displayed on the next page.

File info:


Share it:

Rate it:
Rating: 0
Band nameKelly Rowland »
Song nameHavent Told You »
Tab typeGuitar tab »
Added05/23/2008
Size6.65 Kb
File formattxt
Views/Loads2/0

Sponsored links:
Wrong code.

Text of tab

   
Artist:Kelly Rowland
   Album: Simply Deep
   Song:  Haven't Told You
   Tablature Author: Jay Smith

Ok. Its time for another tab from me. I notice how many of these tabs on this site are soo wrong. 
I don't mean to be critical, but seriously people. Just spend a little more time on these tabs to
get  them right. Ok this is Kelly Rowlands song "Haven't Told You." Very good song on her debut
album. But i'm not here to give you my critiques. This is the tab and if your not here for this
song, you are at the wrong place. Please Leave!! As usual, you can e-mail me at Musikman87@yahoo.com 
for personal comments because to be honest, i don't visit my own sites that often. As always, 
refer to the album for further instructions. So...here it goes. 

	_________________________________________________________________________________________________


	Intro:
	 
	  1 + 2 + 3 + 4 +  1 + 2 + 3 + 4 +  1 + 2 + 3 + 4 +  1 + 2 + 3 + 4 +
	e|----------------|----------------|----1-----1---2-|--2---0---------|         
	B|----1-----1---3-|--3---1-----1---|----1-----1---3-|--3---0---------|
	G|----2-----2---3-|--3---0-----0---|----2-----2---4-|--4---1---------|
	D|--2-------2---3-|--3---2-----2---|----3-----3---4-|--4---2---------|	
	A|0-------0-------|------3---3-----|--3-------3---2-|------2---------|
	E|--------------3-|----------------|1-------1-------|----------------|


	Verse:

	  1 + 2 + 3 + 4 +  1 + 2 + 3 + 4 +  1 + 2 + 3 + 4 +  1 + 2 + 3 + 4 +
	e|----------------|----------------|----1-----1---2-|--2---0-----0---|  }       
	B|----1-----1---3-|--3---1-----1---|----1-----1---3-|--3---0-----0---|	}
	G|----2-----2---3-|--3---0-----0---|----2-----2---4-|--4---1-----1---|	}}} repeat 2x
	D|--2-------2---3-|--3---2-----2---|----3-----3---4-|--4---2-----2---|	}
	A|0-------0-------|------3---3-----|--3-------3---2-|------2---2-----|	}
	E|--------------3-|----------------|1-------1-------|----------------|	}

 	  1 + 2 + 3 + 4 +  1 + 2 + 3 + 4 +  1 + 2 + 3 + 4 +  1 + 2 + 3 + 4 +
	e|----------------|----------------|--------------0-|----------------|         
	B|----6-----6---5-|--6---5-----5---|----3-----3---0-|----------------|
	G|----7-----7---5-|--5---5-----5---|----4-----4---1-|----------------|
	D|--7-------7---5-|--5---5-----5---|--4-------4---2-|----------------|	
	A|5-------5-----3-|--3---3---3-----|2-------2-----2-|----------------|
	E|----------------|----------------|--------------0-|----------------|


	Chorus:
	   (The beginning of the chorus is the same as the verse, just with broken chords.)

	  1 + 2 + 3 + 4 +  1 + 2 + 3 + 4 +  1 + 2 + 3 + 4 +  1 + 2 + 3 + 4 +
	e|----0-----------|----------------|----1-----1---2-|--2---0-----0---|  }    
	B|----1-----1-----|----3-1-----1---|----1-----1---3-|--3---0-----0---|  }
	G|----2-----2-----|--3---0-----0---|----2-----2---4-|--4---1-----1---|  }}} repeat 2x
	D|--2-------2-----|3-----2-----2---|----3-----3---4-|--4---2-----2---|	}
	A|0-------0-------|------3---3-----|--3-------3---2-|------2---2-----|  }
	E|--------------3-|----------------|1-------1-------|----------------|  }

	  1 + 2 + 3 + 4 +  1 + 2 + 3 + 4 +  
	e|5-------3-------|-(2)-----(1)----|         
	B|6-------5-------|--4-------3-----|
	G|7-------5-------|--4-------3-----|
	D|7-------5-------|--4-------3-----|	
	A|5-------3-------|--2-------1-----|
	E|----------------|----------------|


	After-Chorus:
	   (Yes, there is a such thing as an after chorus. Just listen to the song.)

	  1 + 2 + 3 + 4 +  1 + 2 + 3 + 4 +  1 + 2 + 3 + 4 +  1 + 2 + 3 + 4 +
	e|------0---------|----------------|----1-----1---2-|--2---0-----0---|    *Note:The chorus and       
	B|------1---1---3-|--3---1-------1-|----1-----1---3-|--3---0-----0---|	    and after-chorus have
	G|----2-----2---3-|--3---0-------0-|----2-----2---4-|--4---1-----1---|	    different improvs each
	D|--2-------2---3-|--3---2-----2---|----3-----3---4-|--4---2-----2---|	    time they comes. These  
	A|0-------0-0-----|------3---3-----|--3-------3---2-|------2---2-----|      are the basic chords. 
	E|--------------3-|----------------|1-------1-------|----------------|	     

	Bridge:

	  1 + 2 + 3 + 4 +  1 + 2 + 3 + 4 +  1 + 2 + 3 + 4 +  1 + 2 + 3 + 4 +
	e|5-5-------------|3-3-------------|----------------|----------------|         
	B|6-6-------------|4-4-------------|------1---------|------0---------|
	G|7-7-------------|5-5-------------|------2---------|------1---------|
	D|7-7-------------|5-5-------------|----3-----------|----2-----------|	
	A|5-5-------------|3-3-------------|--3-------------|--2-------------|
	E|----------------|----------------|1-------------1-|0---------------|

	  1 + 2 + 3 + 4 +  1 + 2 + 3 + 4 +  1 + 2 + 3 + 4 +  1 + 2 + 3 + 4 +
	e|5-5-------------|3-3-------------|------1---------|------0---------|         
	B|6-6-------------|4-4-------------|------1---------|------0---------|
	G|7-7-------------|5-5-------------|------2---------|------1---------|
	D|7-7-------------|5-5-------------|----3-----------|----2-----------|	
	A|5-5-------------|3-3-------------|--3-------------|--2-------------|
	E|----------------|----------------|1-------------1-|0---------------|

	  1 + 2 + 3 + 4 +  1 + 2 + 3 + 4 +  1 + 2 + 3 + 4 +  
	e|----------------|--------------0-|----------------|         
	B|------1---------|----------0-----|----------------|
	G|------2---------|------1---------|----------------|
	D|----3-----------|----2-----------|----------------|
	A|--3-------------|--2-------------|----------------|
	E|1-------------1-|0---------------|----------------|

	Ending Chorus:
	   (More improv on the original chorus, there is an A Major chord inserted at the end of the chorus,
 	    and first part is repeated 4x this time around.)

	  1 + 2 + 3 + 4 +  1 + 2 + 3 + 4 +  1 + 2 + 3 + 4 +  1 + 2 + 3 + 4 +
	e|------0---------|----------------|------1---1---2-|--2---0-----0---|  }    
	B|------1---1-----|----3-1-----1---|------1---1---3-|--3---0-----0---|  }
	G|----2-----2-----|--3---0-----0---|------2---2---4-|--4---1-----1---|  }}} repeat 4x
	D|--2-------2-----|3-----2-----2---|----3-----3---4-|--4---2-----2---|	}
	A|0-------0-------|------3---3-----|--3-------3---2-|------2---2-----|  }
	E|--------------3-|----------------|1-------1-------|----------------|  }

	  1 + 2 + 3 + 4 +  1 + 2 + 3 + 4 +  1 + 2 + 3 + 4 +  1 + 2 + 3 + 4 +
	e|----------------|----------------|--------0-------|----------------|         
	B|----6-------5---|----4-------3---|------1---------|----------------|
	G|----7-------5---|----4-4-----3-3-|----1-----------|----------------|
	D|--7---7---5---5-|--4-------3-----|--1-------------|----------------|	
	A|5-------3-------|2-------1-------|0---------------|----------------|
	E|----------------|----------------|----------------|----------------|
					    (Slowed pace for these 2 measures)


Add comment: