All tabs: 1331485
We love you! Do you like us?

Suffer In Silence by Impaled Nazarene guitar tab

This is the final page that leads you directly to the Guitar Pro tab, drum tab, bass guitar tab, piano chord, etc you've chosen. This page provides information concerning Suffer In Silence guitar tab such as its format, type of tab or chord, upload date, number of views, number of downloads and rating of this tab provided by thetabsbest.com users.

If the tab you have selected is a downloadable one (mostly these are Impaled Nazarene Guitar Pro tabs), you need to insert so called "captcha" code and click "download" button. In case the code is correct you will be redirected to download page where your Suffer In Silence gp4 file will be prepared. If you have entered wrong "captcha" code, you will be asked to insert it once again to get your Suffer In Silence guitar tab.

If you browse all Impaled Nazarene tabs or open the list of tabs and chords for Suffer In Silence, you can see there are not only Guitar Pro tabs. Guitar tabs and chords, piano & power tabs, drum tabs, bass tabs - they all can be not only in Guitar Pro file format, but also in txt. In this case no special program is needed to read the tab. All you need to do it to open such Suffer In Silence tab and you will see it displayed. If you wish, you can download our free tabs in txt.

thetabsbest.com tries to expand tabs database, adding new and hot songs as well as old and beloved melodies, so our archive could suit any person. Also we try to add chords and files for different music instruments, for example, you can find Impaled Nazarene acoustic guitar tabs, piano chords or power tabs. Many songs like Suffer In Silence have not only Suffer In Silence guitar tab type, but provide wide selection of chords and tabs for all instruments. We also try to add more Impaled Nazarene Guitar Pro tabs as they can bear data for whole band including sheet music.

Our newest addition - Impaled Nazarene lyrics - is viewed the same. Select "lyrics" in the list of the tabs and chords and the text will be displayed on the next page.

File info:


Share it:

Rate it:
Rating: 0
Band nameImpaled Nazarene »
Song nameSuffer In Silence »
Tab typeGuitar tab »
Added05/19/2008
Size4.59 Kb
File formattxt
Views/Loads1/5

Sponsored links:
Wrong code.

Text of tab

   
#----------------------------------PLEASE NOTE---------------------------------#
#This file is the author's own work and represents their interpretation of the #
#song. You may only use this file for private study, scholarship, or research. #
#------------------------------------------------------------------------------#

  
  
Band: Impaled Nazarene
Song: Suffer in Silence
Album: All That You Fear

Transcribed by: Andrew Collyer
Contact: the_hauntedcrown@hotmail.com

Copyright (c) Osmose Productions, 2003

TUNING: E A D G B E

. - palm mute / - slide up to
 - slide down to ~ - vibrato
h - hammer on p - pull off
, - slight palm mute () - ghost note, sustained note
" - tremolo note <> - Trill

Suffixes for bend
f - full bend h - half bend
ph - pinched harmonic q - quarter bend
t - tap bend * - see comment
^ - Hold bend r - release bend
x – Stuccatto ~ - vibrato bend

Intro
-----------
-----------
-7-----7---
-7--5--7---
-5--5--5---
----3------

Riff 1
-----------------------------------------------------------------------------
-----------------------------------------------------------------------------
-5---------5---------5---------5--4--2---------------------------------------
-5---------5---------5---------5--4--2--2---------2---------2---------2-7-2--
-3-3-3-3-3-3-3-3-3-3-3-3-3-3-3-3--2--0--2---------2---------2---------2-7-2--
----------------------------------------0-0-0-0-0-0-0-0-0-0-0-0-0-0-0-0-5-0--
   . . . .   . . . .   . . . .            . . . .   . . . .   . . . .

-----------------------------------------------------------------------------
-----------------------------------------------------------------------------
-7---------7---------7---------7--5--4--------------------------------7---7--
-7---------7---------7---------7--5--4--7---------7---------7---------7-5-7--
-5-5-5-5-5-5-5-5-5-5-5-5-5-5-5-5--3--2--7---------7---------7---------5-5-5--
----------------------------------------5-5-5-5-5-5-5-5-5-5-5-5-5-5-5---3----
   . . . .   . . . .   . . . .            . . . .   . . . .   . . . .

Intro x 1
Riff 1 x 1
Intro x 1
Riff 1 x 1
Intro x 1

Riff 2 (play 4 times)
-------------------------------------------------------------gtr 1-----------
-----------------------------------------------------------------------------
-9--9-9-9-9---11--------------------------7--7-7-7-7-7--5--------------------
-9--9-9-9-9---11-5--5-5-5-5-5--5-5-5-5-5--7--7-7-7-7-7--5--7--7-7-7-7-8--8-8-
-7--7-7-7-7--/9--5--5-5-5-5-5--5-5-5-5-5--5--5-5-5-5-5--3--5--5-5-5-5-6--6-6-
-----------------3--3-3-3-3-3--3-3-3-3-3-------------------5--5-5-5-5-6--6-6-


-------------------------------------------------------------gtr 2-----------
-----------------------------------------------------------------------------
-9--9-9-9-9---11--------------------------7--7-7-7-7-7--5--------------------
-9--9-9-9-9---11-7--7-7-7-7-7--7-7-7-7-7--7--7-7-7-7-7--5--7--7-7-7-7-8--8-8-
-7--7-7-7-7--/9--5--5-5-5-5-5--5-5-5-5-5--5--5-5-5-5-5--3--5--5-5-5-5-6--6-6-
-----------------5--5-5-5-5-5--5-5-5-5-5-------------------5--5-5-5-5-6--6-6-

-------
-------
-------
-8-8--- gtr 1
-6-6---
-6-6---

-------
-------
-------
-8-8--- gtr 2
-6-6---
-6-6---

Riff 3
-------------------------------------------------------------both guitars----
-----------------------------------------------------------------------------
-5--5-5-5-5-5--5-5-5-5-----------------------4--4-4-4-4-4--4-4-4-4-----------
-5--5-5-5-5-5--5-5-5-5-7--7-7-7-7-7--7-7-7-7-4--4-4-4-4-4--4-4-4-4-5--5-5-5--
-3--3-3-3-3-3--3-3-3-3-5--5-5-5-5-5--5-5-5-5-2--2-2-2-2-2--2-2-2-2-3--3-3-3--
-----------------------5--5-5-5-5-5--5-5-5-5-----------------------3--3-3-3--

-------
-------
-------
-5-5--- both gtrs
-3-3---
-3-3---

Intro x 1
Riff 1 x 1
Intro x 1
Riff 1 x 1
Intro x 1
Riff 1 x 1
Intro x 1
Riff 2 x 1
Riff 3 x 1

Riff 4 (play 8 times)
--------------------------------------------------------
--------------------------------------------------------
-------9--------------------9---------------------------
-------9--------------------9-5-5-5-5-5-5-7-7-7-7-7-7--- both gtrs
-------7--------------------7-3-3-3-3-3-3-5-5-5-5-5-5---
-3-2-0----3-2-0-5-3-2-3-2-0---3-3-3-3-3-3-5-5-5-5-5-5---
 . . .    . . . . . . . . .

Riff 5 (play 8 times)
-------------------------------------------------
-------------------------------------------------
-------------------------4---4---4-----------7---
-5-5-5-5-5-5-7-7-7-7-7-7-4---4---4--7--------7--- both gtrs
-3-3-3-3-3-3-5-5-5-5-5-5-2---2---2--7--------5---
-3-3-3-3-3-3-5-5-5-5-5-5------------5--3-3-3-----
                                       . . .
Riff 1 x 1
Intro x 1
Riff 1 x 1 (fade out)
Intro x 1
End

  

For more free tablature visit www.directTABS.com


Add comment: