All tabs: 1331485
We love you! Do you like us?
Bands » I Don Wanna Know » New Found Glory » Guitar tab

New Found Glory by I Don Wanna Know guitar tab

This is the final page that leads you directly to the Guitar Pro tab, drum tab, bass guitar tab, piano chord, etc you've chosen. This page provides information concerning New Found Glory guitar tab such as its format, type of tab or chord, upload date, number of views, number of downloads and rating of this tab provided by thetabsbest.com users.

If the tab you have selected is a downloadable one (mostly these are I Don Wanna Know Guitar Pro tabs), you need to insert so called "captcha" code and click "download" button. In case the code is correct you will be redirected to download page where your New Found Glory gp4 file will be prepared. If you have entered wrong "captcha" code, you will be asked to insert it once again to get your New Found Glory guitar tab.

If you browse all I Don Wanna Know tabs or open the list of tabs and chords for New Found Glory, you can see there are not only Guitar Pro tabs. Guitar tabs and chords, piano & power tabs, drum tabs, bass tabs - they all can be not only in Guitar Pro file format, but also in txt. In this case no special program is needed to read the tab. All you need to do it to open such New Found Glory tab and you will see it displayed. If you wish, you can download our free tabs in txt.

thetabsbest.com tries to expand tabs database, adding new and hot songs as well as old and beloved melodies, so our archive could suit any person. Also we try to add chords and files for different music instruments, for example, you can find I Don Wanna Know acoustic guitar tabs, piano chords or power tabs. Many songs like New Found Glory have not only New Found Glory guitar tab type, but provide wide selection of chords and tabs for all instruments. We also try to add more I Don Wanna Know Guitar Pro tabs as they can bear data for whole band including sheet music.

Our newest addition - I Don Wanna Know lyrics - is viewed the same. Select "lyrics" in the list of the tabs and chords and the text will be displayed on the next page.

File info:


Share it:

Rate it:
Rating: 0
Band nameI Don Wanna Know »
Song nameNew Found Glory »
Tab typeGuitar tab »
Added05/18/2008
Size3.36 Kb
File formattxt
Views/Loads3/0

Sponsored links:
Wrong code.

Text of tab

   

HottestTabs [http://www.hottesttabs.com]

Artist: New Found Glory

Song: I Don't Wanna Know



Intro



e|------------------------------------------|

B|------0---------------0---------0---------|

G|-2--0---0--2--0--2--0---0--2--0---0-------|

D|------------------------------------------|   x2

A|-----------------3--3---3--3--3---0-------|

E|-3--3---3--3--3---------------------------|



e|-3-3-3-3--3-3-3-3--3-3-3-3--3-3-3-3---|

B|-3-3-3-3--3-3-3-3--3-3-3-3--3-3-3-3---|

G|-0-0-0-0--0-0-0-0--0-0-0-0--0-0-0-0---|  Then the chords

D|-0-0-0-0--2-2-2-2--2-2-2-2--2-2-2-2---|

A|-2-2-2-2--3-3-3-3--2-2-2-2--3-3-3-3---|

E|-3-3-3-3------------------------------|



e|-----------------------------------------------|

B|------0----------0-----------0-----------0-----|

G|-2--0---0--2--0----0---2--0-----0--2--0----0---|

D|-----------------------------------------------|   x2   Under the chords

A|--------0--3--3----0------------0--3--3----0---|

E|-3--3------------------0--0--------------------|



Verse



e|------------------------------------------|

B|------0---------------0---------0---------|

G|-2--0---0--2--0--2--0---0--2--0---0-------|

D|------------------------------------------|   x2

A|-----------------3--3---3--3--3---0-------|

E|-3--3---3--3--3---------------------------|



e|----------------------|

B|-0---0---0----0---1---|  "The awkward ways we meet"

G|--------------0---0---|

D|-2---2---0--------2---|   Notes on each syllable apart from "the"

A|------------------3---|

E|----------------------|



Chorus



e|-3-3-3-3--3-3-3-3--3-3-3-3--3-3-3-3---|

B|-3-3-3-3--3-3-3-3--3-3-3-3--3-3-3-3---|

G|-0-0-0-0--0-0-0-0--0-0-0-0--0-0-0-0---| x2

D|-0-0-0-0--2-2-2-2--2-2-2-2--2-2-2-2---|

A|-2-2-2-2--3-3-3-3--2-2-2-2--3-3-3-3---|

E|-3-3-3-3------------------------------|





e|-3-3-3-3--3-3-3-3--3-3-3-3--2-2-2-2---|

B|-3-3-3-3--3-3-3-3--3-3-3-3--3-3-3-3---|

G|-0-0-0-0--0-0-0-0--0-0-0-0--2-2-2-2---| 

D|-0-0-0-0--2-2-2-2--2-2-2-2--0-0-0-0---|  End of Chorus "I don't wanna Know_____"

A|-2-2-2-2--3-3-3-3--2-2-2-2------------|

E|-3-3-3-3------------------------------|



Bridge



e|-0-0-0-0-0-0-0-0--2-2-2-2-2-2-2-2----------|

B|-1-1-1-1-1-1-1-1--3-3-3-3-3-3-3-3----------|

G|-0-0-0-0-0-0-0-0--2-2-2-2-2-2-2-2----------|

D|-2-2-2-2-2-2-2-2--0-0-0-0-0-0-0-0----------| x2

A|-3-3-3-3-3-3-3-3---------------------------|

E|-------------------------------------------|





e|-0-0-0-0-0-0-0-0--0-0-0-0--2-2-2-2---------------|

B|-1-1-1-1-1-1-1-1--0-0-0-0--3-3-3-3---------------|

G|-0-0-0-0-0-0-0-0--0-0-0-0--2-2-2-2---------------|

D|-2-2-2-2-2-2-2-2--2-2-2-2--0-0-0-0---------------|  "Its hard to breathe sometimes"

A|-3-3-3-3-3-3-3-3--2-2-2-2------------------------|   Chord changes from Em to D on "leave" and "sometimes"

E|------------------0-0-0-0------------------------|





e|-0-0-0-0-0-0-0-0--2-2-2-2-2-2-2-2--3--------|

B|-1-1-1-1-1-1-1-1--3-3-3-3-3-3-3-3--3--------|

G|-0-0-0-0-0-0-0-0--2-2-2-2-2-2-2-2--0--------|

D|-2-2-2-2-2-2-2-2--0-0-0-0-0-0-0-0--0--------| "But you know where i lay my head at night"

A|-3-3-3-3-3-3-3-3-------------------2--------| Finish on G- then back to riff then chorus

E|-----------------------------------3--------|



e|-3------------|

B|-3------------|

G|-0------------|

D|-0------------| Finish on G

A|-2------------|

E|-3------------|


Add comment: