All tabs: 1331485
We love you! Do you like us?
Bands » Hi-standard » Dear My Friend » Guitar tab

Dear My Friend by Hi-standard guitar tab

This is the final page that leads you directly to the Guitar Pro tab, drum tab, bass guitar tab, piano chord, etc you've chosen. This page provides information concerning Dear My Friend guitar tab such as its format, type of tab or chord, upload date, number of views, number of downloads and rating of this tab provided by thetabsbest.com users.

If the tab you have selected is a downloadable one (mostly these are Hi-standard Guitar Pro tabs), you need to insert so called "captcha" code and click "download" button. In case the code is correct you will be redirected to download page where your Dear My Friend gp4 file will be prepared. If you have entered wrong "captcha" code, you will be asked to insert it once again to get your Dear My Friend guitar tab.

If you browse all Hi-standard tabs or open the list of tabs and chords for Dear My Friend, you can see there are not only Guitar Pro tabs. Guitar tabs and chords, piano & power tabs, drum tabs, bass tabs - they all can be not only in Guitar Pro file format, but also in txt. In this case no special program is needed to read the tab. All you need to do it to open such Dear My Friend tab and you will see it displayed. If you wish, you can download our free tabs in txt.

thetabsbest.com tries to expand tabs database, adding new and hot songs as well as old and beloved melodies, so our archive could suit any person. Also we try to add chords and files for different music instruments, for example, you can find Hi-standard acoustic guitar tabs, piano chords or power tabs. Many songs like Dear My Friend have not only Dear My Friend guitar tab type, but provide wide selection of chords and tabs for all instruments. We also try to add more Hi-standard Guitar Pro tabs as they can bear data for whole band including sheet music.

Our newest addition - Hi-standard lyrics - is viewed the same. Select "lyrics" in the list of the tabs and chords and the text will be displayed on the next page.

File info:


Share it:

Rate it:
Rating: 0
Band nameHi-standard »
Song nameDear My Friend »
Tab typeGuitar tab »
Added05/18/2008
Size1.12 Kb
File formattxt
Views/Loads91/4

Sponsored links:
Wrong code.

Text of tab

   
-------------------------------------------------------------------------------
			DEAR MY FRIEND - Hi-Standard
-------------------------------------------------------------------------------

By: Tsuyoshi yamashita : yamanoshita@yahoo.com 

INTRO:
e|-----------------------------------------------------------|
B|---7-5-4---7-5-4---7-5-4----4------------------------------|
G|--------------------------6---6----------------------------|
D|-----------------------------------------------------------|
A|-----------------------------------------------------------|
E|-----------------------------------------------------------|

VERSE:
e|-----------------------------------------------------------|
B|-----------------------------------------------------------|
G|---4-4-4-4-9-9-9-9-----------------------------------------|
D|---4-4-4-4-9-9-9-96-6-6-6-4-4-4-4--------------------------|
A|---2-2-2-2-7-7-7-76-6-6-6-4-4-4-4--------------------------|
E|------------------4-4-4-4-2-2-2-2--------------------------|

CHORUS: OUTRO: Dear my friend 

===============================================================================


Add comment:


Comments (1)
Ken

2014-10-13 13:10:27

:)