All tabs: 1331485
We love you! Do you like us?
Bands » Gob » Youre Too Cool » Guitar tab

Youre Too Cool by Gob guitar tab

This is the final page that leads you directly to the Guitar Pro tab, drum tab, bass guitar tab, piano chord, etc you've chosen. This page provides information concerning Youre Too Cool guitar tab such as its format, type of tab or chord, upload date, number of views, number of downloads and rating of this tab provided by thetabsbest.com users.

If the tab you have selected is a downloadable one (mostly these are Gob Guitar Pro tabs), you need to insert so called "captcha" code and click "download" button. In case the code is correct you will be redirected to download page where your Youre Too Cool gp4 file will be prepared. If you have entered wrong "captcha" code, you will be asked to insert it once again to get your Youre Too Cool guitar tab.

If you browse all Gob tabs or open the list of tabs and chords for Youre Too Cool, you can see there are not only Guitar Pro tabs. Guitar tabs and chords, piano & power tabs, drum tabs, bass tabs - they all can be not only in Guitar Pro file format, but also in txt. In this case no special program is needed to read the tab. All you need to do it to open such Youre Too Cool tab and you will see it displayed. If you wish, you can download our free tabs in txt.

thetabsbest.com tries to expand tabs database, adding new and hot songs as well as old and beloved melodies, so our archive could suit any person. Also we try to add chords and files for different music instruments, for example, you can find Gob acoustic guitar tabs, piano chords or power tabs. Many songs like Youre Too Cool have not only Youre Too Cool guitar tab type, but provide wide selection of chords and tabs for all instruments. We also try to add more Gob Guitar Pro tabs as they can bear data for whole band including sheet music.

Our newest addition - Gob lyrics - is viewed the same. Select "lyrics" in the list of the tabs and chords and the text will be displayed on the next page.

File info:


Share it:

Rate it:
Rating: 0
Band nameGob »
Song nameYoure Too Cool »
Tab typeGuitar tab »
Added05/15/2008
Size2.47 Kb
File formattxt
Views/Loads1/0

Sponsored links:
Wrong code.

Text of tab

   

HottestTabs [http://www.hottesttabs.com]

Guitar Tab



Band: Gob

Song: You're Too Cool

Album: Too Late...No Friends (1996)



Gob has two guitarists (Theo and Tom)

but this is a one guitar version of You're Too Cool.



Legend:

b=bend

*=hold

h=hammer-on



(Note: The strummed power chords

are palm muted in the intro.

The last four notes are struck, not muted.)



Intro (play twice)

E--------------------------------

B--------------------------------

G---------7777777-9999999-77-6-4-

D-7777777-7777777-9999999-77-6-4-

A-7777777-5555555-7777777-55-4-2-

E-5555555------------------------



Verse

E---------------------------------

B---------------------------------

G---------7777777---------7777777-

D-7777777-7777777-2222222-7777777-

A-7777777-5555555-2222222-5555555-

E-5555555---------0000000---------



Chorus:

E-----------------------------------------------

B-----------------------------------------------

G-7777777-9999999-7777777-9999999---------------

D-7777777-9999999-7777777-9999999-7777777777777-

A-5555555-7777777-5555555-7777777-7777777777777-

E---------------------------------5555555555555-



Guitar solo:

E---------------------------------------------

B------------------------------------------5b-

G---7-6-4---------7-6-4--------7-6-4---4-6----

D-7-------7-6-6h7-------7-6-4b-------7--------

A---------------------------------------------

E---------------------------------------------



E--------------------------------------------

B--------------------------------------------

G---7-6-4---------7-6-4--------7-6-4---------

D-7-------7-6-6h7-------7-6-4b-------7-6-6h7-

A--------------------------------------------

E--------------------------------------------



Chorus:

E-----------------------------------------------

B-----------------------------------------------

G-7777777-9999999-7777777-9999999---------------

D-7777777-9999999-7777777-9999999-7777777777777-

A-5555555-7777777-5555555-7777777-7777777777777-

E---------------------------------5555555555555-



Outro (three times):

E---------------------------------

B---------------------------------

G---------7777777---------9999999-

D-9999999-7777777-7777777-9999999-

A-9999999-5555555-7777777-7777777-

E-7777777---------5555555---------



Last part of outro:

E--------------------

B--------------------

G---------7777777----

D-9999999-7777777-7*-

A-9999999-5555555-7*-

E-7777777---------5*-


Add comment: