All tabs: 1331485
We love you! Do you like us?
Bands » Elvis Presley » Viva Las Vegas » Guitar tab

Viva Las Vegas by Elvis Presley guitar tab

This is the final page that leads you directly to the Guitar Pro tab, drum tab, bass guitar tab, piano chord, etc you've chosen. This page provides information concerning Viva Las Vegas guitar tab such as its format, type of tab or chord, upload date, number of views, number of downloads and rating of this tab provided by thetabsbest.com users.

If the tab you have selected is a downloadable one (mostly these are Elvis Presley Guitar Pro tabs), you need to insert so called "captcha" code and click "download" button. In case the code is correct you will be redirected to download page where your Viva Las Vegas gp4 file will be prepared. If you have entered wrong "captcha" code, you will be asked to insert it once again to get your Viva Las Vegas guitar tab.

If you browse all Elvis Presley tabs or open the list of tabs and chords for Viva Las Vegas, you can see there are not only Guitar Pro tabs. Guitar tabs and chords, piano & power tabs, drum tabs, bass tabs - they all can be not only in Guitar Pro file format, but also in txt. In this case no special program is needed to read the tab. All you need to do it to open such Viva Las Vegas tab and you will see it displayed. If you wish, you can download our free tabs in txt.

thetabsbest.com tries to expand tabs database, adding new and hot songs as well as old and beloved melodies, so our archive could suit any person. Also we try to add chords and files for different music instruments, for example, you can find Elvis Presley acoustic guitar tabs, piano chords or power tabs. Many songs like Viva Las Vegas have not only Viva Las Vegas guitar tab type, but provide wide selection of chords and tabs for all instruments. We also try to add more Elvis Presley Guitar Pro tabs as they can bear data for whole band including sheet music.

Our newest addition - Elvis Presley lyrics - is viewed the same. Select "lyrics" in the list of the tabs and chords and the text will be displayed on the next page.

File info:


Share it:

Rate it:
Rating: 0
Band nameElvis Presley »
Song nameViva Las Vegas »
Tab typeGuitar tab »
Added05/12/2008
Size10 Kb
File formattxt
Views/Loads1/11

Sponsored links:
Wrong code.

Text of tab

   
#-----------------------------PLEASE NOTE-------------------------------------#
#This file is the author's own work and represents his interpretation of the  #
#song. You may only use this file for private study, scholarship, or research.#
#Remember to view this file in Courier or some other monospaced font.         #
#-----------------------------------------------------------------------------#

Date: Tue, 5 Aug 2003 06:33:47 +0200 (CEST)
From: Jan Björklund 
Subject: p/presley_elvis/viva_las_vegas.btab

elvis_presley/viva_las_vegas.btab

Basstab by Jan Bjorklund, Finland; 
jani_bjorklund@yahoo.se 
You are welcome to request for basstabs or standard notation!
Bienvenidos a pedirme transcripciones para el bajo!


TablEdited by Jan Bjorklund for David
Tuning : E A D G 	Time Signature: 4/4

 |       |       |       |        |       |       |       |        
|0---------------0---------------|0---------------0---------------|
|--------0---------------0-------|--------0---------------0-------|
|--------------------------------|--------------------------------|
|--------------------------------|--------------------------------|

 |       |       |       |        |       |       |       |        
|0---------------0---------------|0---------------0---------------|
|--------0---------------0-------|--------0---------------0-------|
|--------------------------------|--------------------------------|
|--------------------------------|--------------------------------|

 |   Bright light|city gonna      |       |       |       |        
|0---------------0---------------|0---------------0---------------|
|--------0---------------0-------|--------0---------------0-------|
|--------------------------------|--------------------------------|
|--------------------------------|--------------------------------|

 |       |       |       |        |       |       |       |        
|0---------------0---------------|0---------------0---------------|
|--------0---------------0-------|--------0---------------0-------|
|--------------------------------|--------------------------------|
|--------------------------------|--------------------------------|

 |       |       |       |        |       |       |       so       
|0---------------0---------------|0---------------0---------------|
|--------0---------------0-------|--------0---------------0-------|
|--------------------------------|--------------------------------|
|--------------------------------|--------------------------------|

 |       get those stakes|up      |   higher      |   There's a    
|0---------------0---------------|0-------------------------------|
|--------0---------------0-------|--------0-----------1-----------|
|--------------------------------|--------------------------------|
|--------------------------------|--------------------------------|

 thousand|pretty women   |        |       |       |       |        
|--------------------------------|--------------------------------|
|2---------------2---------------|2---------------2---------------|
|--------2---------------2-------|--------2---------------2-------|
|--------------------------------|--------------------------------|

 |       |       |       |        |       |       |       |        
|--------------------------------|--------------------------------|
|2---------------2---------------|2---------------2---------------|
|--------2---------------2-------|--------2---------------2-------|
|--------------------------------|--------------------------------|

 |       |       |       |        |       |       |       |        
|--------------------------------|--------------------------------|
|2---------------2---------------|2---------------2---------------|
|--------2---------------2-------|--------2---------------2-------|
|--------------------------------|--------------------------------|

 Viva    |       |       Las      |   Vegas       |       |        
|--------0-----------------------|0---------------0---------------|
|------------------------2-------|--------0---------------0-------|
|3---------------3---------------|--------------------------------|
|--------------------------------|--------------------------------|

 Viva    |       |       Las      |   Vegas       |       |        
|--------0-----------------------|0-------------------------------|
|------------------------2-------|--------0-------0-------1-------|
|3---------------3---------------|--------------------------------|
|--------------------------------|--------------------------------|

 |       How I wish that |        |   there were more than|        
|0---------------0---------------|0---------------0---------------|
|--------0---------------0-------|--------0---------------0-------|
|--------------------------------|--------------------------------|
|--------------------------------|--------------------------------|

 |   24 hours in the     |        |   day |       |       |        
|0---------------0---------------|0---------------0---------------|
|--------0---------------0-------|--------0---------------0-------|
|--------------------------------|--------------------------------|
|--------------------------------|--------------------------------|

 |       |       |       |        |       |       |       |        
|0---------------0---------------|0---------------0---------------|
|--------0---------------0-------|--------0---------------0-------|
|--------------------------------|--------------------------------|
|--------------------------------|--------------------------------|

 |   wouldn't sleep a minute a-   |   way |       |   Oh the       
|0---------------0---------------|0-------------------------------|
|--------0---------------0-------|--------0-----------1-----------|
|--------------------------------|--------------------------------|
|--------------------------------|--------------------------------|

 black jack and the poker|and the roulette|wheel  |       |        
|--------------------------------|--------------------------------|
|2---------------2---------------|2---------------2---------------|
|--------2---------------2-------|--------2---------------2-------|
|--------------------------------|--------------------------------|

 |       |       |       |        |       |       |       |        
|--------------------------------|--------------------------------|
|2---------------2---------------|2---------------2---------------|
|--------2---------------2-------|--------2---------------2-------|
|--------------------------------|--------------------------------|

 |       |       |       |        |       |       |       |        
|--------------------------------|--------------------------------|
|2---------------2---------------|2---------------2---------------|
|--------2---------------2-------|--------2---------------2-------|
|--------------------------------|--------------------------------|

 Viva    |       |       Las      |   Vegas       |       |        
|--------0-----------------------|0---------------0---------------|
|------------------------2-------|--------0---------------0-------|
|3---------------3---------------|--------------------------------|
|--------------------------------|--------------------------------|

 Viva    |       |       Las      |   Vegas       |       |        
|--------0-----------------------|0---------------0---------------|
|------------------------2-------|--------0---------------0-------|
|3---------------3---------------|--------------------------------|
|--------------------------------|--------------------------------|

 Viva Las|Vegas with your|        |   neon|flashing and your       
|--------0---------------0-------|--------0---------------0-------|
|--------------------------------|--------------------------------|
|3---------------3---------------|3---------------3---------------|
|--------------------------------|--------------------------------|

 one arm bandit's...     |        |       |       |       |        
|--------0-----------------------|0---------------0---------------|
|------------------------2-------|--------0---------------0-------|
|3---------------3---------------|--------------------------------|
|--------------------------------|--------------------------------|

 |       |       |       |        Viva Las|Vegas turning  |        
|0---------------0---------------|--------0---------------0-------|
|--------0---------------0-------|--------------------------------|
|--------------------------------|3---------------3---------------|
|--------------------------------|--------------------------------|

 day into|night I'm turning       night into daytime if you        
|--------0---------------0-------|--------0---------------0-------|
|--------------------------------|--------------------------------|
|3---------------3---------------|3---------------3---------------|
|--------------------------------|--------------------------------|

 |   see it once |       |        |       |       |       |        
|2---------------2---------------|2---------------2-------2-------|
|--------2---------------2-------|--------2-----------------------|
|--------------------------------|--------------------------------|
|--------------------------------|--------------------------------|

 |       |       |       |        |       |       I'm gonna        
|--------------------------------|--------------------------------|
|0-------0-------0-------0---0---|0---0---0---0---0---0---0---0---|
|--------------------------------|--------------------------------|
|--------------------------------|--------------------------------|

 |   keep|on the run I'm gonna    |   have|me some|fun... |        
|0---------------0---------------|0---------------0---------------|
|--------0---------------0-------|--------0---------------0-------|
|--------------------------------|--------------------------------|
|--------------------------------|-------   and so on...   -------|


Transcribe! 6.0 transcription http://www.seventhstring.demon.co.uk/
Created with TablEdit http://www.tabledit.com/


_____________________________________________________
Visit www.directtabs.com for more tabs.


Add comment: