All tabs: 1331485
We love you! Do you like us?
Bands » Elvis Presley » Mystery Train » Bass tab

Mystery Train by Elvis Presley bass tab

This is the final page that leads you directly to the Guitar Pro tab, drum tab, bass guitar tab, piano chord, etc you've chosen. This page provides information concerning Mystery Train bass tab such as its format, type of tab or chord, upload date, number of views, number of downloads and rating of this tab provided by thetabsbest.com users.

If the tab you have selected is a downloadable one (mostly these are Elvis Presley Guitar Pro tabs), you need to insert so called "captcha" code and click "download" button. In case the code is correct you will be redirected to download page where your Mystery Train gp4 file will be prepared. If you have entered wrong "captcha" code, you will be asked to insert it once again to get your Mystery Train bass tab.

If you browse all Elvis Presley tabs or open the list of tabs and chords for Mystery Train, you can see there are not only Guitar Pro tabs. Guitar tabs and chords, piano & power tabs, drum tabs, bass tabs - they all can be not only in Guitar Pro file format, but also in txt. In this case no special program is needed to read the tab. All you need to do it to open such Mystery Train tab and you will see it displayed. If you wish, you can download our free tabs in txt.

thetabsbest.com tries to expand tabs database, adding new and hot songs as well as old and beloved melodies, so our archive could suit any person. Also we try to add chords and files for different music instruments, for example, you can find Elvis Presley acoustic guitar tabs, piano chords or power tabs. Many songs like Mystery Train have not only Mystery Train bass tab type, but provide wide selection of chords and tabs for all instruments. We also try to add more Elvis Presley Guitar Pro tabs as they can bear data for whole band including sheet music.

Our newest addition - Elvis Presley lyrics - is viewed the same. Select "lyrics" in the list of the tabs and chords and the text will be displayed on the next page.

File info:


Share it:

Rate it:
Rating: 0
Band nameElvis Presley »
Song nameMystery Train »
Tab typeBass tab »
Added05/12/2008
Size6.86 Kb
File formattxt
Views/Loads1/4

Sponsored links:
Wrong code.

Text of tab

   
MYSTERY TRAIN (Bassline)
As recorded by Elvis Presley
(From the 1999 Album SUNRISE)


 Words and Music by Sam C. Phillips and Herman Parker Jr.

 

Gtr I (E A D G) - 'Standard'


 4/4
  Gtr I
  W            Q  Q  Q  Q   7x     Q  Q  Q  Q    Q  Q  Q  Q
|----------||---------------||-||--------------|-------------|
|----------||o-------------o||-||o-7-----7-----|-7-----7-----|
|----------||o-7-----7-----o||-||o-------------|-------------|
|----------||---------------||-||--------------|-------------|


  Q  Q  Q  Q    Q  Q  Q  Q    Q  Q  Q  Q    Q  Q  Q  Q
|-------------|-------------|-------------|-------------|
|-7-----7-----|-7-----7-----|-7-----7-----|-------------|
|-------------|-------------|-------------|-7-----7-----|
|-------------|-------------|-------------|-------------|


  Q  Q  Q  Q    Q  Q  Q  Q    Q  Q  Q  Q    Q  Q  Q  Q
|-------------|-------------|-------------|-------------|
|-------------|-------------|-------------|-------------|
|-7-----7-----|-7-----7-----|-7-----7-----|-7-----7-----|
|-------------|-------------|-------------|-------------|


  Q  Q  Q  Q    Q  Q  Q  Q    Q  Q  Q  Q    Q  Q  Q  Q
|-------------|-------------|-------------|-------------|
|-7-----7-----|-7-----7-----|-7-----7-----|-7-----7-----|
|-------------|-------------|-------------|-------------|
|-------------|-------------|-------------|-------------|


  Q  Q  Q  Q    Q  Q  Q  Q    Q  Q  Q  Q    Q  Q  Q  Q
|-------------|-------------|-------------|-------------|
|-7-----7-----|-------------|-------------|-------------|
|-------------|-7-----7-----|-7-----7-----|-7-----7-----|
|-------------|-------------|-------------|-------------|


  Q  Q  Q  Q    Q  a Q  Q  Q    Q  Q  Q  Q    Q  Q  Q  Q
|-------------|---------------|-------------|--------------|
|-------------|----6s7--9-----|-9-----9-----|-9-----9------|
|-7-----7-----|-9-------------|-------------|--------------|
|-------------|---------------|-------------|--------------|


  Q  Q  Q  Q    Q  Q  Q  Q    Q  Q  Q  Q    Q  Q  Q  Q
|-------------|-------------|-------------|-------------|
|-7-----7-----|-------------|-------------|-------------|
|-------------|-7-----7-----|-7-----7-----|-7-----7-----|
|-------------|-------------|-------------|-------------|


  Q  Q  Q  Q    Q  Q  Q  Q   3x Q  Q  Q  Q    Q  Q  Q  Q
|-------------|--------------||-------------|-------------|
|-------------|-7-----7-----o||-7-----7-----|-7-----7-----|
|-7-----7-----|-------------o||-------------|-------------|
|-------------|--------------||-------------|-------------|


  Q  Q  Q  Q    Q  Q  Q  Q    Q  Q  Q  Q    Q  Q  Q  Q
|-------------|-------------|-------------|-------------|
|-7-----7-----|-------------|-------------|-------------|
|-------------|-7-----7-----|-7-----7-----|-7-----7-----|
|-------------|-------------|-------------|-------------|


  Q  Q  Q  Q    Q  Q  Q  Q    Q  Q  Q  Q    Q  Q  Q  Q
|-------------|-------------|-------------|-------------|
|-------------|-9-----9-----|-9-----9-----|-7-----7-----|
|-7-----7-----|-------------|-------------|-------------|
|-------------|-------------|-------------|-------------|


  Q  Q  Q  Q    Q  Q  Q  Q    Q  Q  Q  Q    Q  Q  Q  Q
|-------------|-------------|-------------|-------------|
|-7-----7-----|----6--------|----6--------|----6-----6--|
|-------------|-7-----7-----|-7-----7-----|-7-----7-----|
|-------------|-------------|-------------|-------------|


  Q  Q  Q  Q    Q  Q  Q  Q    Q  Q  Q  Q      Q  Q  Q  Q   4x
|-------------|-------------|-------------||---------------||
|----6-----6--|----6-----6--|-7-----7-----||o-7-----7-----o||
|-7-----7-----|-7-----7-----|-------------||o-------------o||
|-------------|-------------|-------------||---------------||


    Q  Q  Q  Q   5x     Q  Q  Q  Q   5x     Q  Q  Q  Q   4x Q  a Q  Q  Q
||---------------||-||---------------||-||---------------||---------------|
||o-------------o||-||o-7-----7-----o||-||o-------------o||----6s7--9-----|
||o-7-----7-----o||-||o-------------o||-||o-7-----7-----o||-9-------------|
||---------------||-||---------------||-||---------------||---------------|


  Q  Q  Q  Q    Q  Q  Q  Q    Q  Q  Q  Q      Q  Q  Q  Q   3x
|-------------|-------------|-------------||---------------||
|-9-----9-----|-9-----9-----|-7-----7-----||o-------------o||
|-------------|-------------|-------------||o-7-----7-----o||
|-------------|-------------|-------------||---------------||


    Q  Q  Q  Q   4x     Q  Q  Q  Q   5x Q  Q  Q  Q    Q  Q  Q  Q
||---------------||-||---------------||-------------|-------------*|
||o-7-----7-----o||-||o-------------o||-------------|-------------*|
||o-------------o||-||o-7-----7-----o||-7-----7-----|-7-----7-----*|
||---------------||-||---------------||-------------|-------------*|




--------------------------------------------------------------------------------


Duration Legend
---------------
W - whole; H - half; Q - quarter; E - 8th; S - 16th; T - 32nd; X - 64th; a - acciaccatura
+ - note tied to previous; . - note dotted; .. - note double dotted
Uncapitalized letters represent notes that are staccato (1/2 duration)
Irregular groupings are notated above the duration line
Duration letters will always appear directly above the note/fret number it represents the
duration for.  Duration letters with no fret number below them represent rests.  Multi-
bar rests are notated in the form Wxn, where n is the number of bars to rest for.  Low
melody durations appear below the staff

Tablature Legend
----------------
 h   - hammer-on
 p   - pull-off
 b   - bend
 pb  - pre-bend
 r   - bend release (if no number after the r, then release immediately)
 /  - slide into or out of (from/to "nowhere")
 s   - legato slide
 S   - shift slide
 - natural harmonic
[n]  - artificial harmonic
n(n) - tapped harmonic
 ~   - vibrato
 tr  - trill
 T   - tap
 TP  - trem. picking
 PM  - palm muting
n/  - tremolo bar dip; n = amount to dip
 n  - tremolo bar down
 n/  - tremolo bar up
/n  - tremolo bar inverted dip
 =   - hold bend; also acts as connecting device for hammers/pulls
  - volume swell (louder/softer)
 x   - on rhythm slash represents muted slash
 o   - on rhythm slash represents single note slash

Misc Legend
-----------
 |  - bar
||  - double bar
||o - repeat start
o|| - repeat end
*|  - double bar (ending)
 :  - bar (freetime)
 $  - Segno
 &  - Coda
Tempo markers -  = BPM(8/16=s8/s16), where s8 = swing 8ths, s16 = swing 16ths


Add comment: