All tabs: 1331485
We love you! Do you like us?

Heaven Came Down by David Crowder Band chord

This is the final page that leads you directly to the Guitar Pro tab, drum tab, bass guitar tab, piano chord, etc you've chosen. This page provides information concerning Heaven Came Down chord such as its format, type of tab or chord, upload date, number of views, number of downloads and rating of this tab provided by thetabsbest.com users.

If the tab you have selected is a downloadable one (mostly these are David Crowder Band Guitar Pro tabs), you need to insert so called "captcha" code and click "download" button. In case the code is correct you will be redirected to download page where your Heaven Came Down gp4 file will be prepared. If you have entered wrong "captcha" code, you will be asked to insert it once again to get your Heaven Came Down chord.

If you browse all David Crowder Band tabs or open the list of tabs and chords for Heaven Came Down, you can see there are not only Guitar Pro tabs. Guitar tabs and chords, piano & power tabs, drum tabs, bass tabs - they all can be not only in Guitar Pro file format, but also in txt. In this case no special program is needed to read the tab. All you need to do it to open such Heaven Came Down tab and you will see it displayed. If you wish, you can download our free tabs in txt.

thetabsbest.com tries to expand tabs database, adding new and hot songs as well as old and beloved melodies, so our archive could suit any person. Also we try to add chords and files for different music instruments, for example, you can find David Crowder Band acoustic guitar tabs, piano chords or power tabs. Many songs like Heaven Came Down have not only Heaven Came Down chord type, but provide wide selection of chords and tabs for all instruments. We also try to add more David Crowder Band Guitar Pro tabs as they can bear data for whole band including sheet music.

Our newest addition - David Crowder Band lyrics - is viewed the same. Select "lyrics" in the list of the tabs and chords and the text will be displayed on the next page.

File info:


Share it:

Rate it:
Rating: 0
Band nameDavid Crowder Band »
Song nameHeaven Came Down »
Tab typeChords »
Added05/10/2008
Size2.3 Kb
File formattxt
Views/Loads1/0

Sponsored links:
Wrong code.

Text of tab

   
Heaven Came Down

The song starts out like this...

CHORUS

   Em             C                D
-------------------------------------------------------------------------
----3----------------1--------------3------------------------------------
--------------------0-------------0--------------------------------------
----2-------------2------------4-----------------------------------------
----2-----------3--------3 / 5-------------------------------------------
-------------------------------------------------------------------------

Play this riff twice, after the first line of the chorus. Remember Crowder 
starts this song on the chorus 'Em' as shown above.

-------------------------------------------------------------------------...
-------------------------------------------------------------------------...
-----------------------------12--11--9--------9--------------------------...
------------7---9 / 12--9----------------12-------9---7---9--------------...
--7---10---------------------------------------------------------10----7-...
-------------------------------------------------------------------------...

...-----------------------------------------------------------------------3--
...-----------------------------------------------------------------------3--
...-----------------------12--11--9--7-h9---------------------------------0--
...------7---9 / 12--9-----------------------5^7----5-----------5--4------0--
...---10-----------------------------------5------5--------7--5------5----2--
...---------------------------------------------------7--5----------------3--



When leading up to Verse 1, play the chorus riff above then this next tab which 
takes you right to Verse 1's 'G'

								      
--------------------------------------------------------------------------
--------------------------------------------------------------------------
-----------------------------12--11--9--------9---------------------------
------------7---9 / 12--9----------------12-------9---7---9---------------
--7---10---------------------------------------------------------10----7--
--------------------------------------------------------------------------

Hope it's right...
It makes sounds right to me. Checkout www.davidcrowderband.com 
for the chords to the song.
Good luck
Jason


Add comment: