All tabs: 1331485
We love you! Do you like us?

Love Of My Life by Dave Matthews Band guitar tab

This is the final page that leads you directly to the Guitar Pro tab, drum tab, bass guitar tab, piano chord, etc you've chosen. This page provides information concerning Love Of My Life guitar tab such as its format, type of tab or chord, upload date, number of views, number of downloads and rating of this tab provided by thetabsbest.com users.

If the tab you have selected is a downloadable one (mostly these are Dave Matthews Band Guitar Pro tabs), you need to insert so called "captcha" code and click "download" button. In case the code is correct you will be redirected to download page where your Love Of My Life gp4 file will be prepared. If you have entered wrong "captcha" code, you will be asked to insert it once again to get your Love Of My Life guitar tab.

If you browse all Dave Matthews Band tabs or open the list of tabs and chords for Love Of My Life, you can see there are not only Guitar Pro tabs. Guitar tabs and chords, piano & power tabs, drum tabs, bass tabs - they all can be not only in Guitar Pro file format, but also in txt. In this case no special program is needed to read the tab. All you need to do it to open such Love Of My Life tab and you will see it displayed. If you wish, you can download our free tabs in txt.

thetabsbest.com tries to expand tabs database, adding new and hot songs as well as old and beloved melodies, so our archive could suit any person. Also we try to add chords and files for different music instruments, for example, you can find Dave Matthews Band acoustic guitar tabs, piano chords or power tabs. Many songs like Love Of My Life have not only Love Of My Life guitar tab type, but provide wide selection of chords and tabs for all instruments. We also try to add more Dave Matthews Band Guitar Pro tabs as they can bear data for whole band including sheet music.

Our newest addition - Dave Matthews Band lyrics - is viewed the same. Select "lyrics" in the list of the tabs and chords and the text will be displayed on the next page.

File info:


Share it:

Rate it:
Rating: 0
Band nameDave Matthews Band »
Song nameLove Of My Life »
Tab typeGuitar tab »
Added06/24/2008
Size1.31 Kb
File formattxt
Views/Loads2/0

Sponsored links:
Wrong code.

Text of tab

   
Artist: Santana feat. Dave Matthews
Song: Love of My Life
Transcribed by: Daniel (Chick_Magnet)
E-mail: Mxpxpunk1@hotmail.com
Note: *=let ring

Intro\Main Riff:
e---------------------------------------------
B-------------------------------------6-------
G--------------7--5---------------------8-----
D--5--7--8*----------7*-----5--7--8*------7*--
A---------------------------------------------
E---------------------------------------------

e----------------------------------------------------------
B----------------------------------------------------------
G--------5--5----8--7--------7--5--------------------------
D--7--8----------------8--8---------5*---5-5-5--4--5-5s7*--
A----------------------------------------------------------
E----------------------------------------------------------

The verses are just played off of the main riff and the G pentatonic scale
e--3-------------6--
B--3-------------6--
G--3-------------5--
D--3-------------5--
A--3-------------5--
E--3-------------6--

Fill 1:
e----------------------------------------------
B----------------------------------------------
G------------10--8----8h10--8------------------
D--8--9--10---------7----------5--5-5-8-7-5-5--
A----------------------------------------------
E----------------------------------------------


Add comment: