All tabs: 1331485
We love you! Do you like us?
Bands » Dave Matthews Band » 3 » Guitar tab

3 by Dave Matthews Band guitar tab

This is the final page that leads you directly to the Guitar Pro tab, drum tab, bass guitar tab, piano chord, etc you've chosen. This page provides information concerning 3 guitar tab such as its format, type of tab or chord, upload date, number of views, number of downloads and rating of this tab provided by thetabsbest.com users.

If the tab you have selected is a downloadable one (mostly these are Dave Matthews Band Guitar Pro tabs), you need to insert so called "captcha" code and click "download" button. In case the code is correct you will be redirected to download page where your 3 gp4 file will be prepared. If you have entered wrong "captcha" code, you will be asked to insert it once again to get your 3 guitar tab.

If you browse all Dave Matthews Band tabs or open the list of tabs and chords for 3, you can see there are not only Guitar Pro tabs. Guitar tabs and chords, piano & power tabs, drum tabs, bass tabs - they all can be not only in Guitar Pro file format, but also in txt. In this case no special program is needed to read the tab. All you need to do it to open such 3 tab and you will see it displayed. If you wish, you can download our free tabs in txt.

thetabsbest.com tries to expand tabs database, adding new and hot songs as well as old and beloved melodies, so our archive could suit any person. Also we try to add chords and files for different music instruments, for example, you can find Dave Matthews Band acoustic guitar tabs, piano chords or power tabs. Many songs like 3 have not only 3 guitar tab type, but provide wide selection of chords and tabs for all instruments. We also try to add more Dave Matthews Band Guitar Pro tabs as they can bear data for whole band including sheet music.

Our newest addition - Dave Matthews Band lyrics - is viewed the same. Select "lyrics" in the list of the tabs and chords and the text will be displayed on the next page.

File info:


Share it:

Rate it:
Rating: 0
Band nameDave Matthews Band »
Song name3 »
Tab typeGuitar tab »
Added05/10/2008
Size19.64 Kb
File formattxt
Views/Loads1/0

Sponsored links:
Wrong code.

Text of tab

   
"#34"

by Dave Matthews Band

off the album Under The Table And Dreaming



tabbed by Joshua Kirsch

e-mail me for any questions, comments, or corrections:

joshua@hhhworld.com



note: the beat in this song gets tricky towards the end.  if you have trouble, concentrate on the 

numbers above each tab line instead of the given time signatures.  keep in mind that every number

or plus sign has the same duration.  (ex: 1 + + 2 + +  equals  1 + 2 + 3 + ) 





 time signature = 9/8

____________________________________________________________________________________________________

VERSE                                                                                       _

                                                                                             |

     1  +  +  2  +  +  3  +  +   1  +  +  2  +  +  3  +  +   1  +  +  2  +  +  3  +  +       |

                                                                                             |

 e ||---------------------------|---------------------------|---------------------------|    |

 B ||---------------------------|---------------------------|---------------------------|    | play

 G ||---------------11----6-----|------7--6-----------------|---------------------------|    | 12x

 D ||------9-----9-----4--------|---7--------4-----7--------|---------------------------|    |

 A ||---7-----7-----------------|5--------------------5-----|7--------7--------9--------|    |

 E ||5--------------------------|---------------------------|---------------------------|    |

                                                                                            _|



                                                                                           _

                                                                                            |

    1  +  +  2  +  +  3  +  +   1  +  +  2  +  +  3  +  +   1  +  +  2  +  +  3  +  +       |

                                                                                            |

 e |---------------------------|---------------------------|---------------------------|    |

 B |---------------------------|---------------------------|---------------------------|    |

 G |---------------11----6-----|------7--6-----------------|---------------------------|    |

 D |------9-----9-----4--------|---7--------4-----7--------|---------------------------|    |

 A |---7-----7-----------------|5--------------------5-----|7--------7--------9--------|    |

 E |5--------------------------|---------------------------|---------------------------|    |

                                                                                            |

                                                                                            |

__________________________________________________________________________________________  | play

INTERLUDE                                                                                   | 2x

                                                                                            |

    1  +  +  2  +  +  3  +  +   1  +  +  2  +  +  3  +  +   1  +  +  2  +  +  3  +  +       |

                                                                                            |

 e |---------------------------|---------------------------|---------------------------|    |

 B |---------------------------|---------------------------|---------------------------|    |

 G |---------------------------|---------------------------|---------------------------|    |

 D |------0--------------------|------0--------------------|---------------------------|    |

 A |---5-----------------------|---5-----------------------|7--------7--------9--------|    |

 E |5--------------------------|3--------------------------|---------------------------|    |

                                                                                           _|



____________________________________________________________________________________________________

VERSE                                                                                      _

                                                                                            |

    1  +  +  2  +  +  3  +  +   1  +  +  2  +  +  3  +  +   1  +  +  2  +  +  3  +  +       |

                                                                                            |

 e |---------------------------|---------------------------|---------------------------|    |

 B |---------------------------|---------------------------|---------------------------|    | play

 G |---------------11----6-----|------7--6-----------------|---------------------------|    | 4x

 D |------9-----9-----4--------|---7--------4-----7--------|---------------------------|    |

 A |---7-----7-----------------|5--------------------5-----|7--------7--------9--------|    |

 E |5--------------------------|---------------------------|---------------------------|    |

                                                                                           _|



                                                                                           _

                                                                                            |

    1  +  +  2  +  +  3  +  +   1  +  +  2  +  +  3  +  +   1  +  +  2  +  +  3  +  +       |

                                                                                            |

 e |---------------------------|---------------------------|---------------------------|    |

 B |---------------------------|---------------------------|---------------------------|    |

 G |---------------11----6-----|------7--6-----------------|---------------------------|    |

 D |------9-----9-----4--------|---7--------4-----7--------|---------------------------|    |

 A |---7-----7-----------------|5--------------------5-----|7--------7--------9--------|    |

 E |5--------------------------|---------------------------|---------------------------|    |

                                                                                            |

                                                                                            |

__________________________________________________________________________________________  | play

INTERLUDE                                                                                   | 2x

                                                                                            |

    1  +  +  2  +  +  3  +  +   1  +  +  2  +  +  3  +  +   1  +  +  2  +  +  3  +  +       |

                                                                                            |

 e |---------------------------|---------------------------|---------------------------|    |

 B |---------------------------|-----(7)-------------------|---------------------------|    | (play 2nd

 G |---------------------------|---------------------------|---------------------------|    | time only)

 D |------0--------------------|------0--------------------|---------------------------|    |

 A |---5-----------------------|---5-----------------------|7--------7--------9--------|    |

 E |5--------------------------|3--------------------------|---------------------------|    |

                                                                                           _|



____________________________________________________________________________________________________

VERSE                                                                                      _

                                                                                            |

    1  +  +  2  +  +  3  +  +   1  +  +  2  +  +  3  +  +   1  +  +  2  +  +  3  +  +       |

                                                                                            |

 e |---------------------------|---------------------------|---------------------------|    |

 B |---------------------------|---------------------------|---------------------------|    | play

 G |---------------11----6-----|------7--6-----------------|---------------------------|    | 3x

 D |------9-----9-----4--------|---7--------4-----7--------|---------------------------|    |

 A |---7-----7-----------------|5--------------------5-----|7--------7--------9--------|    |

 E |5--------------------------|---------------------------|---------------------------|    |

                                                                                           _|



                                                                                           _

                                                                                            |

    1  +  +  2  +  +  3  +  +   1  +  +  2  +  +  3  +  +   1  +  +  2  +  +  3  +  +       |

                                                                                            |

 e |---------------------------|---------------------------|---------------------------|    |

 B |---------------------------|---------------------------|---------------------------|    |

 G |---------------11----6-----|------7--6-----------------|---------------------------|    |

 D |------9-----9-----4--------|---7--------4-----7--------|---------------------------|    |

 A |---7-----7-----------------|5--------------------5-----|7--------7--------9--------|    |

 E |5--------------------------|---------------------------|---------------------------|    |

                                                                                            |

                                                                                            |

__________________________________________________________________________________________  | play

INTERLUDE                                                                                   | 2x

                                                                                            |

    1  +  +  2  +  +  3  +  +   1  +  +  2  +  +  3  +  +   1  +  +  2  +  +  3  +  +       |

                                                                                            |

 e |---------------------------|---------------------------|---------------------------|    |

 B |---------------------------|-----(7)-------------------|---------------------------|    | (play 2nd

 G |---------------------------|---------------------------|---------------------------|    | time only)

 D |------0--------------------|------0--------------------|---------------------------|    |

 A |---5-----------------------|---5-----------------------|7--------7--------9--------|    |

 E |5--------------------------|3--------------------------|---------------------------|    |

                                                                                           _|



____________________________________________________________________________________________________

VERSE                                                                                      _

                                                                                            |

    1  +  +  2  +  +  3  +  +   1  +  +  2  +  +  3  +  +   1  +  +  2  +  +  3  +  +       |

                                                                                            |

 e |---------------------------|---------------------------|---------------------------|    |

 B |---------------------------|---------------------------|---------------------------|    | play

 G |---------------11----6-----|------7--6-----------------|---------------------------|    | 2x

 D |------9-----9-----4--------|---7--------4-----7--------|---------------------------|    |

 A |---7-----7-----------------|5--------------------5-----|7--------7--------9--------|    |

 E |5--------------------------|---------------------------|---------------------------|    |

                                                                                           _|



____________________________________________________________________________________________________

INTERLUDE  



    1  +  +  2  +  +  3  +  +   1  +  +  2  +  +  3  +  +   1  +  +  2  +  +  3  +  +



 e |---------------------------|---------------------------|---------------------------|

 B |---------------------------|---------------------------|---------------------------|

 G |---------------------------|---------------------------|---------------------------|

 D |------0--------------------|------0--------------------|---------------------------|

 A |---5-----------------------|---5-----------------------|7--------7--------9--------|

 E |5--------------------------|3--------------------------|---------------------------|





____________________________________________________________________________________________________

VERSE



    1  +  +  2  +  +  3  +  +   1  +  +  2  +  +  3  +  +   1  +  +  2  +  +  3  +  +



 e |---------------------------|---------------------------|---------------------------|

 B |---------------------------|---------------------------|---------------------------|

 G |---------------11----6-----|------7--6-----------------|---------------------------|

 D |------9-----9-----4--------|---7--------4-----7--------|---------------------------|

 A |---7-----7-----------------|5--------------------5-----|7--------7--------9--------|

 E |5--------------------------|---------------------------|---------------------------|





____________________________________________________________________________________________________

BRIDGE



    1  +  +  2  +  +  3  +  +



 e |---------------------------|

 B |---------------------------|

 G |---------------------------|

 D |---------------------------|

 A |---------5--4-----------5--|

 E |---------------5--7--------|





 time signature = 12/8                      _

                                             |

    1  +  +  2  +  +  3  +  +  4  +  +       |

                                             |

 e |------------------------------------|    |

 B |------------------------------------|    | play

 G |------------------------------------|    | 11x

 D |------------------------------------|    |

 A |7-----------------5--4-----------5--|    |

 E |------5--7--------------5--7--------|    |

                                            _|



 

time signature =   3/8                4/4                     6/8       



                1  +  +     1  +  2  +  3  +  4  +     1  +  2  +  3  +



             e |---------| |------------------------| |-----------------|

             B |---------| |------------------------| |-----------------|

             G |---------| |------------------------| |-----------------|

             D |---9--7--| |---11----9-----7-----5--| |------10------10-|

             A |---------| |9-----7-----5-----3-----| |---8--------8----|

             E |---------| |------------------------| |6--------6-------|





____________________________________________________________________________________________________

VERSE



 time signature =             9/8                                    6/8



    1  +  +  2  +  +  3  +  +   1  +  +  2  +  +  3  +  +     1  +  2  +  3  +



 e |---------------------------|---------------------------| |------------------|

 B |---------------------------|---------------------------| |------------------|

 G |---------------11----6-----|------7--6-----------------| |------------------|

 D |------9-----9-----4--------|---7--------4-----7--------| |------10-------10-|

 A |---7-----7-----------------|5--------------------5-----| |---8--------8-----|

 E |5--------------------------|---------------------------| |6--------6--------|





 time signature = 9/8



    1  +  +  2  +  +  3  +  +   1  +  +  2  +  +  3  +  +   1  +  +  2  +  +  3  +  +



 e |---------------------------|---------------------------|---------------------------||

 B |---------------------------|---------------------------|---------------------------||

 G |---------------11----6-----|------7--6-----------------|---------------------------||

 D |------9-----9-----4--------|---7--------4-----7--------|------10-------------------||

 A |---7-----7-----------------|5--------------------5-----|---8-----------------------||

 E |5--------------------------|---------------------------|6--------------------------||









  ##########################################################################################

  # KEY                                                                                    #

  #                                                                                        #

  #  time signature = 4/4                                                        _         #

  #                                                                               |        #

  #       1   +   2   +   3   +   4   +    1   +   2   +   3   +     < beat       |        #

  #  1    lyrics sung first time                                                  |        #

  #  2    lyrics sung seccond time (1st repeat)                                   |        #

  #  3    lyrics sung third time (2nd repeat)                                     |        #

  #                                                                               |        #

  #   e ||--------------------------------|--------------------------------|      |        #

  #   B ||--------------------------------|--------------------------------|      |        #

  #   G ||--------- 1 measure ------------|--------- 1 measure ------------|      |        #

  #   D ||--------------------------------|--------------------------------|      |        #

  #   A ||--------------------------------|--------------------------------|      |        #

  #   E ||--------------------------------|--------------------------------|      |        #

  #                                                                               |        #

  #      ^ marks begining of song                                                 | play   #

  #                                                                               | 3x     #

  #      1   +   2   +   3   +   4   +    1   +   2   +   3   +   4   +           |        #

  #  1   lyrics sung first time                                                   |        #

  #  2   lyrics sung seccond time (1st repeat)                                    |        #

  #  3   lyrics sung third time (2nd repeat)                                      |        #

  #                                                                               |        #

  #   e |--------------------------------|--------------------------------||      |        #

  #   B |--------------------------------|--------------------------------||      |        #

  #   G |--------- 1 measure ------------|--------- 1 measure ------------||      |        #

  #   D |--------------------------------|--------------------------------||      |        #

  #   A |--------------------------------|--------------------------------||      |        #

  #   E |--------------------------------|--------------------------------||      |        #

  #                                                                               |        #

  #   ^ tuning                                           marks end of song ^      |        #

  #                                                                              _|        #

  #                                                                                        #

  #                                                                                        #

  ##########################################################################################


Add comment: