All tabs: 1331485
We love you! Do you like us?
Bands » Cambur » Nuestra Realidad » Guitar tab

Nuestra Realidad by Cambur guitar tab

This is the final page that leads you directly to the Guitar Pro tab, drum tab, bass guitar tab, piano chord, etc you've chosen. This page provides information concerning Nuestra Realidad guitar tab such as its format, type of tab or chord, upload date, number of views, number of downloads and rating of this tab provided by thetabsbest.com users.

If the tab you have selected is a downloadable one (mostly these are Cambur Guitar Pro tabs), you need to insert so called "captcha" code and click "download" button. In case the code is correct you will be redirected to download page where your Nuestra Realidad gp4 file will be prepared. If you have entered wrong "captcha" code, you will be asked to insert it once again to get your Nuestra Realidad guitar tab.

If you browse all Cambur tabs or open the list of tabs and chords for Nuestra Realidad, you can see there are not only Guitar Pro tabs. Guitar tabs and chords, piano & power tabs, drum tabs, bass tabs - they all can be not only in Guitar Pro file format, but also in txt. In this case no special program is needed to read the tab. All you need to do it to open such Nuestra Realidad tab and you will see it displayed. If you wish, you can download our free tabs in txt.

thetabsbest.com tries to expand tabs database, adding new and hot songs as well as old and beloved melodies, so our archive could suit any person. Also we try to add chords and files for different music instruments, for example, you can find Cambur acoustic guitar tabs, piano chords or power tabs. Many songs like Nuestra Realidad have not only Nuestra Realidad guitar tab type, but provide wide selection of chords and tabs for all instruments. We also try to add more Cambur Guitar Pro tabs as they can bear data for whole band including sheet music.

Our newest addition - Cambur lyrics - is viewed the same. Select "lyrics" in the list of the tabs and chords and the text will be displayed on the next page.

File info:


Share it:

Rate it:
Rating: 0
Band nameCambur »
Song nameNuestra Realidad »
Tab typeGuitar tab »
Added05/07/2008
Size4.58 Kb
File formattxt
Views/Loads3/0

Sponsored links:
Wrong code.

Text of tab

   




MI REALIDAD



Acordes: 

Do (x3550x)                              La (577xxx) 

Sol (3554xx)                              Mim (022xxx)

Fa (1332xx)/Fa* (x81010xx)       

Re (x577xx)

La# (x133xx)



>El intro es Do,  Sol,  Fa  -  Do,  Sol,  Fa*

>Se toca 2 veces y se hace una pausa de tres tiempos seguidos





VERSO I



           Re

Asi te siento y no te tengo

            Fa*

Asi te sueño y lo lamento

          Do

Esta mierda de momento 

           Sol

No la puedo soportar



             Re

Todo el dia descifrando 

            Fa*

Lo que dicen a mi lado

           Do

Son hipocritas de mierda

          Sol

Ya no los aguanto mas



                    Re

No hago a un lado lo que siento

          Fa*

No lo borro y solo pienso

               Do

En el momento en que 

                        Sol

Te pueda encontrar



           Re

Me da vida tu sonrisa

         Fa*

Y tus ojos me iluminan

           Do

Yo no puedo 

                       Sol

Sentarme a esperar





PUENTE



La

Abarcas mi firmamento

Sol

Eres todo lo que quiero

Mim

El recuerdo que no tengo

Fa 

De tu figura en el mar





CORO



Fa

Aguantando la desdicha 

             Sol

De no vivir el dia a dia

                                La

Fingiendo una sonrisa



Y esta puta soledad

                   Do          Re      

Que me asfixia





>Se repite el Intro 2 veces



>VERSO II



         Re

No definas el amor

           Fa*

No cataloges un beso

           Do

Cada quien que lo interprete

            Sol

Como quiera y ya esta



          Re

Estoy harto del dinero

               Fa*

Y de esta puta sociedad

               Do

Que solo vela 

                   Sol

Por su bienestar



           Re

Crean marginalidad

               Fa*

No hay amor a los demas

               Do

Todo es guerra 

                Sol

E inseguridad ... y yo



             Re

Con los pies en la tierra

          Fa*

Enamorado de una estrella

             Do

Que la veo 

                        Sol

Y no la puedo tocar





>Se repite el Puente 



>Se repite el Coro



>Se repite el Intro 1 vez y se mantiene el Fa* hasta que empieze el solo y se cambia a:



Fa  Do  La#



>El solo 



 e |-----------------|        

 B |-----------------|

 G|----10/12------|  x 5

 D|-----------12---|     

 A|-----------------|  

 E |-----------------|



 e |--------------------------------------------------------------------------------------------------|

 B |--------------------------------------------------------------------------------------------------|

 G|--10-----10-----10/12----9-----9------9/10-----7-----7-----7-----7-----7-----7------7/9-|

 D|------10-----10---------------10----10---------------8-----8-----8-----8-----8------8--------|

 A|---------------------------------------------------------------------------------------------------|

 E |--------------------------------------------------------------------------------------------------|





e |------------------------------------------------------------------------------------------------------------|

B |------------------------------------------------------------------------------------------------------------|

G|10----10------10/12----12------12-----12------10-----10-----10-----10-----10-----10----10----10-|

D|----10-----10------------------14-----14-----14-----12-----12-----12-----12-----12-----12----12----|

A|-------------------------------------------------------------------------------------------------------------|

E|-------------------------------------------------------------------------------------------------------------|







>Se cambia a Re  Do  La# } p.m.  y se va bajando la distorcion

 



Re                          Do                La#

Es como buscar una aguja en un pajar



Es como intentar entender por que hay que matar



Es como buscar una aguja en un pajar



Es como intentar comprender de donde viene el mal





>Se aumenta la distorcion y se repite 1 vez.



>Despues se toca Re Do La# Do Re y se toca el Coro de nuevo



>El Coro se toca 4 veces



>La primera se canta normal



>La segunda solo se dice: Aguantando

                                       dia a dia

                                       La sonrisa  



Y se mantiene en sonrisa hasta la 3ra.



>En la 4ª. Se dice y esta puta soledad que me asfixia



>Se termina en Fa*  y se toca La  Sol  La  y se acabo !





Add comment: