All tabs: 1331485
We love you! Do you like us?
Bands » Bob Dylan » Blackjack Davey » Guitar tab

Blackjack Davey by Bob Dylan guitar tab

This is the final page that leads you directly to the Guitar Pro tab, drum tab, bass guitar tab, piano chord, etc you've chosen. This page provides information concerning Blackjack Davey guitar tab such as its format, type of tab or chord, upload date, number of views, number of downloads and rating of this tab provided by thetabsbest.com users.

If the tab you have selected is a downloadable one (mostly these are Bob Dylan Guitar Pro tabs), you need to insert so called "captcha" code and click "download" button. In case the code is correct you will be redirected to download page where your Blackjack Davey gp4 file will be prepared. If you have entered wrong "captcha" code, you will be asked to insert it once again to get your Blackjack Davey guitar tab.

If you browse all Bob Dylan tabs or open the list of tabs and chords for Blackjack Davey, you can see there are not only Guitar Pro tabs. Guitar tabs and chords, piano & power tabs, drum tabs, bass tabs - they all can be not only in Guitar Pro file format, but also in txt. In this case no special program is needed to read the tab. All you need to do it to open such Blackjack Davey tab and you will see it displayed. If you wish, you can download our free tabs in txt.

thetabsbest.com tries to expand tabs database, adding new and hot songs as well as old and beloved melodies, so our archive could suit any person. Also we try to add chords and files for different music instruments, for example, you can find Bob Dylan acoustic guitar tabs, piano chords or power tabs. Many songs like Blackjack Davey have not only Blackjack Davey guitar tab type, but provide wide selection of chords and tabs for all instruments. We also try to add more Bob Dylan Guitar Pro tabs as they can bear data for whole band including sheet music.

Our newest addition - Bob Dylan lyrics - is viewed the same. Select "lyrics" in the list of the tabs and chords and the text will be displayed on the next page.

File info:


Share it:

Rate it:
Rating: 0
Band nameBob Dylan »
Song nameBlackjack Davey »
Tab typeGuitar tab »
Added05/06/2008
Size3.34 Kb
File formattxt
Views/Loads14/0

Sponsored links:
Wrong code.

Text of tab

   
Date: 31 Dec 2002 16:35:20 -0800
From: Martina MacFarlane 
Subject: d/dylan_bob/blackjack_davey.tab

Song: Blackjack Davey
Artist: Bob Dylan
Album: Good As I Been To You

I^m usually more of a rock person but this song is one of my favourites. I looked everywhere for a tab of it but couldn^t find one. So, I came up with this. The timing is probably off but if you listen to the song it^s not that hard to figure out. It^s a traditional folk song and wasn^t written by Bob, but his version is by far the best. 

It^s in standard tuning capoed at the 4th fret.

E|------------------------|----------------------------|
B|------------------------|----------------------------|
G|------------------------|----------------------------|
D|---3/5-----5----5----5--|------5----5----5----5------|
A|---3/5-------------3----|---5------------------------|
E|---1/3---3----6---------|---------6----3----3--------|


E|------------------------|-----5----5----5----5------|
B|------------------------|-----6----6----6----6------|
G|------------------------|-----7----7----7----7------|
D|---3/5-----5----5----5--|-----7---------------------|
A|---3/5-------------3----|---5-----------------------|
E|---1/3---3----6---------|---------------------------|


E|-----------5------------|--------------------------|
B|--------------6---------|--------------------------|
G|-----------------7------|--------------------------|
D|------------------------|---3/5-----5----5----5----|
A|---5---5----------------|---3/5-------------3------|
E|------------------------|---1/3---3----6-----------|


E|------------------------|----------------------------|
B|------------------------|----------------------------|
G|------------------------|---------------------2-x-x--|
D|------5----5----5----5--|---3/5---5-5---5-5---3-x-x--|
A|---5--------------------|---3/5---5-5---5-5---3-x-x--|
E|---------6----3----3----|---1/3---3-3---3-3---1-x-x--|


E|-----0----0---0---0-----|-----------0-----------|
B|-----1----1---1---1-----|--------------1--------|
G|-----0----0---0---0-----|-----------------0-----|
D|-----2------------------|-----------------------|
A|---3--------------------|---3---3---------------|
E|------------------------|-----------------------|


E|------------------------|--------------------------|
B|--------0-0-----0-----0-|----------------3---------|
G|--------0-0-----0-----0-|----------------3--3------|
D|---1/3----0-------------|---3/5---5--5---5--5--5---|
A|--------------3-----1---|---3/5---5--5------5--5---|
E|------------------------|---1/3---3--3---------3---|


This is repeated for the whole song with very small changes in the walks between chords.

Don^t go insane about hitting only exact strings; it sounds great if you strum the whole thing instead of fingerpicking.

This is my first tab so if you have any suggestions, comments, or questions, my e-mail address is martycardy@icqmail.com.

See-ya (more tabs to come!)

Martina MacFarlane


Add comment: