All tabs: 1331485
We love you! Do you like us?

The Weapons Are Concealed by Biffy Clyro guitar tab

This is the final page that leads you directly to the Guitar Pro tab, drum tab, bass guitar tab, piano chord, etc you've chosen. This page provides information concerning The Weapons Are Concealed guitar tab such as its format, type of tab or chord, upload date, number of views, number of downloads and rating of this tab provided by thetabsbest.com users.

If the tab you have selected is a downloadable one (mostly these are Biffy Clyro Guitar Pro tabs), you need to insert so called "captcha" code and click "download" button. In case the code is correct you will be redirected to download page where your The Weapons Are Concealed gp4 file will be prepared. If you have entered wrong "captcha" code, you will be asked to insert it once again to get your The Weapons Are Concealed guitar tab.

If you browse all Biffy Clyro tabs or open the list of tabs and chords for The Weapons Are Concealed, you can see there are not only Guitar Pro tabs. Guitar tabs and chords, piano & power tabs, drum tabs, bass tabs - they all can be not only in Guitar Pro file format, but also in txt. In this case no special program is needed to read the tab. All you need to do it to open such The Weapons Are Concealed tab and you will see it displayed. If you wish, you can download our free tabs in txt.

thetabsbest.com tries to expand tabs database, adding new and hot songs as well as old and beloved melodies, so our archive could suit any person. Also we try to add chords and files for different music instruments, for example, you can find Biffy Clyro acoustic guitar tabs, piano chords or power tabs. Many songs like The Weapons Are Concealed have not only The Weapons Are Concealed guitar tab type, but provide wide selection of chords and tabs for all instruments. We also try to add more Biffy Clyro Guitar Pro tabs as they can bear data for whole band including sheet music.

Our newest addition - Biffy Clyro lyrics - is viewed the same. Select "lyrics" in the list of the tabs and chords and the text will be displayed on the next page.

File info:


Share it:

Rate it:
Rating: 0
Band nameBiffy Clyro »
Song nameThe Weapons Are Concealed »
Tab typeGuitar tab »
Added05/06/2008
Size2.82 Kb
File formattxt
Views/Loads2/0

Sponsored links:
Wrong code.

Text of tab

   




Biffy Clyro

The Weapons are Concealed

Infinity Land

D A D G



note: As I explained to band themselves, I dont actually like this song, but for those who do...

Im under suspicion that this song is actually tuned lower than D. as the second part of the intro sounds way lower if you listen.



Intro

---------------------- 

---------------------- 

--3--1-3-6-7-8---4---- x2

----------------------



----------------- 

----------------- 

--3--1-3-6-7--4-- x2

-----------------



Verse

------6-8-----  

--3-6--------- 

-------------- x4

-------------- 



----5---------  

--5---7-8----- 

-------------- x2

-------------- 



------6-8-----  

--3-6--------- 

-------------- x2

-------------- 



----5---------  

--5---7-8----- 

-------------- x2

-------------- 



-------------------------5/6/865----- 

--3---3---2---2---8---8----------------  

--------------------------------------- 

--------------------------------------- 



---------------0h1-3---3-5/6/865----- 

--3---3---2---2------------------------  

--------------------------------------- 

--------3------------------------------ 

 

--5/6/865---5/6/865---5-6-8-6-5---5-6-8-6-5--  

-------------------------------------------------  

------------------------------------------------- 

------------------------------------------------- 



-----------------------------------------  

-----------------------------------------

--12-12-12-12-12-12-7-7-7-7-10-10-10-10--

-----------------------------------------



Bridge

---------------------------------------------------------------------- 

---------------------------------------------------------------------- 

--10-10-10-10-10-10-10-10-7-7-7-7-9--9--9--9-------------------------- 

----------------------------------------------0--0--0--0--0--0--0--0-- 



---------------------------------------------------- 

----------------------------------------------------  

----------------------------------------------------

--2--2--2--2--4--4--4--4---10-10-10-10-10-10-10-10--



-----------------------------------

-----------------------------------

--2-2-2-2-5-5-5-5-3-3-3-3-3-3-3-3-- 

-----------------------------------



Repeat Bridge

---------------------------------------------   

-----(x8)------(x8)-----(x8)------(x8)------- 

--3--------9---------5--------10--------7---- x2

--------------------------------------------- 



----------- 

-----(x8)-- 

--3-------- 

-----------



Outro

--------------------- 

---------------------

---------------------

--2-x-x-x-2-x-x-x----





------------------------------------------

-----2-/9-2---2-/9--2-----2-/9--2---------

------------------------------------------

--2---------------------------------------



enjoi.





Add comment: