All tabs: 1331485
We love you! Do you like us?

Cool Useful Modes by Bass Lessons bass tab

This is the final page that leads you directly to the Guitar Pro tab, drum tab, bass guitar tab, piano chord, etc you've chosen. This page provides information concerning Cool Useful Modes bass tab such as its format, type of tab or chord, upload date, number of views, number of downloads and rating of this tab provided by thetabsbest.com users.

If the tab you have selected is a downloadable one (mostly these are Bass Lessons Guitar Pro tabs), you need to insert so called "captcha" code and click "download" button. In case the code is correct you will be redirected to download page where your Cool Useful Modes gp4 file will be prepared. If you have entered wrong "captcha" code, you will be asked to insert it once again to get your Cool Useful Modes bass tab.

If you browse all Bass Lessons tabs or open the list of tabs and chords for Cool Useful Modes, you can see there are not only Guitar Pro tabs. Guitar tabs and chords, piano & power tabs, drum tabs, bass tabs - they all can be not only in Guitar Pro file format, but also in txt. In this case no special program is needed to read the tab. All you need to do it to open such Cool Useful Modes tab and you will see it displayed. If you wish, you can download our free tabs in txt.

thetabsbest.com tries to expand tabs database, adding new and hot songs as well as old and beloved melodies, so our archive could suit any person. Also we try to add chords and files for different music instruments, for example, you can find Bass Lessons acoustic guitar tabs, piano chords or power tabs. Many songs like Cool Useful Modes have not only Cool Useful Modes bass tab type, but provide wide selection of chords and tabs for all instruments. We also try to add more Bass Lessons Guitar Pro tabs as they can bear data for whole band including sheet music.

Our newest addition - Bass Lessons lyrics - is viewed the same. Select "lyrics" in the list of the tabs and chords and the text will be displayed on the next page.

File info:


Share it:

Rate it:
Rating: 0
Band nameBass Lessons »
Song nameCool Useful Modes »
Tab typeBass tab »
Added05/05/2008
Size3.59 Kb
File formattxt
Views/Loads26/1

Sponsored links:
Wrong code.

Text of tab

   
Cool useful Modes:

These are some cool modes that you can use on the bass, or any
instrument for that matter. They are all different in their moods
so you can decide which you like or want to use.

FAIRLY IMPORTANT: 

(if you don't know or care for notes skip this)


These modes are set in one key (note) but can easily
be change to any note or octive that you 
want; the pattern is what matters, example:

 Mixolydian in G:  (I want Mixolydian in G#)---> Mixolydian in G#:

G A B C D E F G                                  G# A# C C# D# F F# G#
                                                   (Bb)


And, also: No I didn't make these crazy names up.


Phrygian in E:

E F G A B C D E

-This is a harsh, exotic mode, used a lot in Spanish flaminco music.

G|------------------------------------------------|
D|--------------------0--2--0---------------------|
A|-----------0--2--3-----------3--2--0------------|
E|--0--1--3-----------------------------3--1--0---|


Dorian in D:

D E F G A B C D

-This mode sounds more ancient and haunting (not in a scary way)
and is a mediterranean mode.

G|-----------0--2--4--5--7--5--4--2--0------------|
D|--0--2--3-----------------------------3--2--0---|
A|------------------------------------------------|
E|------------------------------------------------|


Lydian in F:

F G A B C D R F

-A kind of confused mode, it has no exact mood.

G|------------------------------------------------|
D|-----------------0--2--4--2--0------------------|
A|--------0--2--3-----------------3--2--0---------|
E|--1--3-----------------------------------3--1---|


Aeolian in A:

A B C D E F G A

-Sound minor and sad and old.
(might be a typical minor scale I'm not sure)

G|-----------------------2------------------------|
D|--------------2--3--5-----5--3--2---------------|
A|-----2--3--5-----------------------5--3--2------|
E|--5-----------------------------------------5---|


Locrian in B:

B C D E F G A B

-I cant't really describe this one, it's a little like 
the lydian mode because it sounds a little bit confused.
Though it is similar to the Aeolian by pattern it does 
not sound like the Aeolian. 

G|--------------------2--4--2---------------------|
D|-----------2--3--5-----------5--3--2------------|
A|--2--3--5-----------------------------5--3--2---|
E|------------------------------------------------|


Mixolydian in G:

G A B C D E F G

- Happy sounding. I think this could just be another
name for a moveable major scale but I am not sure.

G|------------------------------------------------|
D|-----------------2--4--5--4--2------------------|
A|--------2--3--5-----------------5--3--2---------|
E|--3--5-----------------------------------5--3---|


Lonian in C:

c D E F G A B C

-Also Happy sounding. I also think that this is 
a different name for another moveable major scale.

G|-----------------2--4--5--4--2------------------|
D|--------2--3--5-----------------5--3--2---------|
A|--3--5-----------------------------------5--3---|
E|------------------------------------------------|


I hope this was useful. I highly encourage you to find more modes,
they really add a lot to your playing. I will probably be trying 
to submit more tabs that have even better modes.


Add comment: