All tabs: 1331485
We love you! Do you like us?
Bands » Bad Religion » Suffer » Guitar tab

Suffer by Bad Religion guitar tab

This is the final page that leads you directly to the Guitar Pro tab, drum tab, bass guitar tab, piano chord, etc you've chosen. This page provides information concerning Suffer guitar tab such as its format, type of tab or chord, upload date, number of views, number of downloads and rating of this tab provided by thetabsbest.com users.

If the tab you have selected is a downloadable one (mostly these are Bad Religion Guitar Pro tabs), you need to insert so called "captcha" code and click "download" button. In case the code is correct you will be redirected to download page where your Suffer gp4 file will be prepared. If you have entered wrong "captcha" code, you will be asked to insert it once again to get your Suffer guitar tab.

If you browse all Bad Religion tabs or open the list of tabs and chords for Suffer, you can see there are not only Guitar Pro tabs. Guitar tabs and chords, piano & power tabs, drum tabs, bass tabs - they all can be not only in Guitar Pro file format, but also in txt. In this case no special program is needed to read the tab. All you need to do it to open such Suffer tab and you will see it displayed. If you wish, you can download our free tabs in txt.

thetabsbest.com tries to expand tabs database, adding new and hot songs as well as old and beloved melodies, so our archive could suit any person. Also we try to add chords and files for different music instruments, for example, you can find Bad Religion acoustic guitar tabs, piano chords or power tabs. Many songs like Suffer have not only Suffer guitar tab type, but provide wide selection of chords and tabs for all instruments. We also try to add more Bad Religion Guitar Pro tabs as they can bear data for whole band including sheet music.

Our newest addition - Bad Religion lyrics - is viewed the same. Select "lyrics" in the list of the tabs and chords and the text will be displayed on the next page.

File info:


Share it:

Rate it:
Rating: 0
Band nameBad Religion »
Song nameSuffer »
Tab typeGuitar tab »
Added05/05/2008
Size13.8 Kb
File formattxt
Views/Loads2/0

Sponsored links:
Wrong code.

Text of tab

   
BAD RELIGION - "You are (the Government)"

Comments, corrections, etc. welcome

Par Svensson, t89par@student.tdb.uu.se


F  G#  A#  C#  D#   F  G#  A#  C#  C    x4


     C#           G#                 D#                   F
hey, sit down and listen and they'll tell you when you're wrong,

 C#           G#            D#                A#
eradicate but vindicate as "progress" creeps along,

C#           G#              D#               F
puritan work ethic maintains its subconscious edge,

   C#            D#                  F
as old glory maintains your consciousness


C#  D#  F

F  G#  A#  C#  D#   F  G#  A#  C#  C    x2


          C#           G#          D#          F
there's a loser in the house and a puppet on a stool,

      C#             G#         D#               A#
and a crowded way of life and a black reflecting pool,

    C#            G#       D#           F
and as the people bend the moral fabric dies,

     C#               D#                 F#
then country can't pretend to ignore its people's cries


C#  D#  F


C#  D#

F  D#  F    G#  D#  G#  D# 
you are the government,

F  D#  F     G#  D#  G#  D#
you are jurisprudence,

F  D#  F    G#  D#  G#  D#
you are the volition,

F  D#  F     G#  D#  G#  D#
you are jurisdiction 

    F C#     G#   D#    F
and I make a difference too
1000 More Fools
Intro: 
e|-------------------------------------| e|--------------------| 
B|-------------------------------------| B|--------------------| 
G|-2-2555555-5777777-2-2555555-5-------| G|-2-2----------------| 
D|-2-2555555-5777777-2-2555555-5333333-| D|-2-25-5-5-5-5-5-5-5-| x4 Pick Slide 
A|-0-0333333-3555555-0-0333333-3333333-| A|-0-05-5-5-5-5-5-5-5-| / here 
E|------------------------------111111-| E|----3-3-3-3-3-3-3-3-|/ 

Verse: 
e|---------------------------------------------------------------------------| 
B|---------------------------------------------------------------------------| 
G|-22222222-55555555-------------------22222222-55555555---------------------| 
D|-22222222-55555555-55555555-33333333-22222222-55555555-55555555-33333333---| 
A|-00000000-33333333-55555555-33333333-00000000-33333333-55555555-33333333---| 
E|-------------------33333333-11111111-------------------33333333-11111111---| 

Chorus: 
e|---------------------|    e|--------------------------------------| 
B|---------------------|   B|--------------------------------------| 
G|-2222-5555-----------|   G|-2222-5555----------------------------| 
D|-2222-5555-5555-3333-| x3 D|-2222-5555-222222222222---------------| 
A|-0000-3333-5555-3333-| /  A|-0000-3333-222222222222---------------| 
E|-----------3333-1111-|/   E|-----------000000000000---------------| 

How Much is Enough?
Intro/Verse:

   EE     G    A      EE     G    A      EEEE    CCCC   GGGG   DDDD     Repeat
 3x

Pre-Chorus:

   DD  DD  DD  DD

Chorus:

   C# C#C#C#C#C#C#C#  DDDDDDDD   AAAAAAAA   EEEEEEEE    Repeat  2x

When?(Coming Soon)

Give you Nothing

e |-------------------------------------------------|
B |-------------------------------------------------|
G |-------------------------------------------------|
D |-7------7-----7----------------------------------|
A |-5------5-----5----------------------------------|
E |-------------------------------------------------|

Verse:

e |-------------------------------------------------|
B |-------------------------------------------------|
G |-------------------------------------------------|
D |-9-9--12-12-12--7-7------------------------------|
A |-7-7--10-10-10--5-5--7-7-7-----------------------|
E |---------------------5-5-5-----------------------|

Chorus: 

e |-------------------------------------------------|
B |-------------------------------------------------|
G |-*-----------------------------------------------|
D |-*---*-------------------------------------------|
A |-10--9--8--7-------------------------------------|
E |-8---7--6--5-------------------------------------|

End Chorus: 

e |-------------------------------------------------|
B |-------------------------------------------------|
G |-*-----------------------------------------------|
D |-*-----------------------------------------------|
A |-10----------------------------------------------|
E |-8-----------------------------------------------|


Bridge:

e |-------------------------------------------------|
B |-------------------------------------------------|
G |-------------------------------------------------|
D |-9-9-------7-7-----------------------------------|
A |-7-7--5-5--5-5--7-7-7-7--------------------------|
E |------3-3-------5-5-5-5--------------------------|

End Bridge:

e |-------------------------------------------------|
B |-------------------------------------------------|
G |-------------------------------------------------|
D |-------------------------------------------------|
A |-10--12------------------------------------------|
E |-8---10------------------------------------------|


Ending:

e |-------------------------------------------------|
B |-------------------------------------------------|
G |-------------------------------------------------|
D |-9-----------------------------------------------|
A |-7-----------------------------------------------|
E |-------------------------------------------------|

Land of Competition
E D E D

E D
see, there's a girl who's afraid of the world

E D
so she stays at home,

E D
also a boy who seems so lost in his joy 

E D
he's all alone,


C G D E
the camera's on them, they're in the land of competition,

C D E
southern california air feeds them,

C G D E
and they know they're the best 'cuz of the way they are dressed,

C D E D E D
but you can bet you are not welcome in their home,


see there's a girl who sits and
watches the world from her blue screen,
also a boy who truly wants to destroy his
hometown scene,

they both want to travel to the land of competition,
southern california will destroy them,
and they won't be the best,
they'll be the poseurs who dress 
like the plastic idiots who they copy

tell me what do you need to make you happy?
indeed, is it out of your reach?
beware of number one,
see all the damage it has done,
there are so few of them,

you won't find too many in the land of competition,
southern california doesn't breed them,
if you just want the best turn to yourself for the rest,
and forget about the one's who "have it all"

C D E
be careful of the ones who "have it all"

Forbidden Beat
Riff:
Power chords: 1 ^ 2 ^ 3 ^ 4 ^ 1 ^ 2 ^ 3 ^ 4

D D D C D D D D C G


Riff x2

D C G


D C
there was a boy who had too many toys

G D
and an ache inside of his bones

D C
he sought extrication through chemical vocation

G D
and now he just answers to tones


C G D
it's deadly and alluring

F C G
the sound of pounding heat

F C G D 
enslaving all who dare to succumb to

A# C Riff

Best For You
Main Riff 

E-------------------------------------------:|
B-------------------------------------------:|
G---7--7--7--7--7--7--7--7--3--3--5--5--5--5:|
D---7--7--7--7--7--7--7--7--3--3--5--5--5--5:|
A---5--5--5--5--5--5--5--5--1--1--3--3--3--3:|
E-------------------------------------------:|

At the part where the song goes: There's someone watching over you
E----------------------------------| 
B----------------------------------| Then back to main riff
G---10--10--10--10--12--12--12--12-|
D---10--10--10--10--12--12--12--12-|
A---8---8---8---8---10--10--10--10-|
E----------------------------------|

At the part where it goes: Inside they know whats best for you
E---------------------------------------------------------------|
B---------------------------------------------------------------|
G---10--10--10--10--12--12--12--12--14--14--14--14--14--14--14--|
D---10--10--10--10--12--12--12--12--14--14--14--14--14--14--14--|
A---8---8---8---8---10--10--10--10--12--12--12--12--12--12--12--|
E---------------------------------------------------------------|

Suffer
Riff A1 End Riff A1 Riff A2 End Riff A2
|-0---------------0---------------| |-0-------0-------0-------0-------|
|-1---------------1---------------| |-1-------1-------1-------1-------|
|-2---------------2---------------| |-2-------2-------2-------2-------|
|-2---------------2---------------| |-2-------2-------2-------2-------|
|-0---------------0---------------| |-0-------0-------0-------0-------|
|---------------------------------| |---------------------------------|

Riff B End Riff B
|---------------------------------|---------------------------------|
|---------------------------------|---------------------------------|
|---------------------------------|---------------------------------|
|-7---7-7---7-7---7---7-7----7-7--|-3---3-3---3-3---3---3-3---3-3---|
|-7---7-7---7-7---7---7-7----7-7--|-3---3-3---3-3---3---3-3---3-3---|
|-5---5-5---5-5---5---5-5----5-5--|-1---1-1---1-1---1---1-1---1-1---|

Riff C End Riff C
|---------------------------------|---------------------------------|
|---------------------------------|---------------------------------|
|---------------------------------|---------------------------------|
|-5---5-5---5-5---5---5-5---5-5---|-7---7-7---7-7---7---7-7---7-7---|
|-5---5-5---5-5---5---5-5---5-5---|-7---7-7---7-7---7---7-7---7-7---|
|-3---3-3---3-3---3---3-3---3-3---|-5---5-5---5-5---5---5-5---5-5---|

Riff D End Riff D Riff E End Riff E
|---------------------------------| |---------------------------------|
|---------------------------------| |---------------------------------|
|---------------------------------| |-10------9-----------------------|
|-5---5-5---5-5---5---5-5---5-5---| |-10------9-------7---7-7---7-7---|
|-5---5-5---5-5---5---5-5---5-5---| |-8-------7-------7---7-7---7-7---|
|-3---3-3---3-3---3---3-3---3-3---| |-----------------5---5-5---5-5---|

Riff F End Riff F
|---------------------------------|---------------------------------|
|---------------------------------|---------------------------------|
|-10--1010--1010--10--1010--1010--|-9---9-9---9-9---9---9-9---9-9---|
|-10--1010--1010--10--1010--1010--|-9---9-9---9-9---9---9-9---9-9---|
|-8---8-8---8-8---8---8-8---8-8---|-7---7-7---7-7---7---7-7---7-7---|
|---------------------------------|---------------------------------|

Riff G End Riff G Riff H End Riff
H
|---------------------------------| 
|---------------------------------|
|---------------------------------| 
|---------------------------------|
|-9---9-9---9-9---10--1010--1010--| 
|-9---9-9---9-9---9---9-9---9-9---|
|-9---9-9---9-9---10--1010--1010--| 
|-9---9-9---9-9---9---9-9---9-9---|
|-7---7-7---7-7---8---8-8---8-8---| 
|-7---7-7---7-7---7---7-7---7-7---|
|---------------------------------| 
|---------------------------------|

Riff I End Riff I
|--------------------------------||
|--------------------------------||
|--------------------------------||
|-7---7---5---7---------------||
|-7---7---5---7---------------||
|-5---5---3---5---------------||


Delirium and Disorder
Main rythm:
G A G A A# G A G A A# G A G A A# G F E (4x)

A
Life is a sive through which my anarchy strains

F
Resolving itself into words

A
Chaos is the score upon which reality is written

F
The timeless, whirling, gyroscopic hord


(w/ main rythm)
Delirium, delirium of disorder

A G (8x)

Part II
F EEE F EEE F EEE F EEE F EEE F EEE F EEE F EEE F EEE F EEE G D


F EEE F EEE CCCC DDDD FEEE F EEE F EEE F EEE
It's superficial progress, they call it liberation,

F EEE F EEE CCCC DDDD FEEE F EEE F EEE F EEE
With opiums of silicon, big brother scheme to rule the nation,

CCCC DDDD F EEE F EEE
We're one nation under God, we stand above the rest,

DDDD AAAA EEEE BBBB 
With mighty high technology we're never second best, 

CCCC DDDD F EEE F EEE F EEE F EEE
Our specialty is infiltration!

CCCCCCC BBBBBBB
Prepare yourselves for subjugation, victory through domination!

F EEE F EEE F EEE F EEE F EEE F EEE G C
One Two Three Four Five Six

F EEE F EEE CCCC DDDD FEEE F EEE F EEE F EEE
The Trepaditions throngs all fear the big eye in the sky

F EEE F EEE CCCC DDDD 
The government observes the with their own electric eye

F EEE F EEE CCCC DDDD FEEE F EEE F EEE F EEE
Automatons, Illiterates, and indigents of every shape and size

F EEE F EEE CCCC DDDD FEEE F EEE F EEE F EEE
Don't stop, but aid this cruel crusade participate in their own demise.

CCCC DDDD F EEE F EEE
We're one nation under God, we stand above the rest

DDDD AAAA EEEE BBBB
With mighty high technology we stand above the rest

CCCC BBBB F EEE F EEE F EEE F EEE
Our specialty is infiltration

C C C C C B B B B B B
So pack your bags you third world nation, victory through domination.


What Can You Do(Coming Soon!)

Do What You Want
Intro:
C CC CCCCC B BB BBBBB

Rhy. Fig. 1:
E C G D (x4)

Rhy. Fig. 2:
EE CC GG DD (X4) w/ lyrics
Hey do what you want, but don't do it around me.
Idleness and dissipation breed apathy.
I sit on my ass all god*** day,
A misanthropic anthropoid with nothing to

CC DD E EE CC DD E EE
Say what you must, do all you can,
CC DD E EE
Break all the ***ing rules and
C CC C C C C C
Go to Hell with Superman and
B BB BBBBB
Die like a champion, yeah hey!
Rhy. Fig.1 (x4)

Rhy. fig. 2:
EE CC GG DD (X4) w/ lyrics
Hey I don't know if the billions will survive,
But I'll believe in God when 1 and 1 are 5.
My moniker is man and I'm rotten to the core.
I'll tear down the building just to pass through the door.
EE EE EE EE

CC DD E EE CC DD E EE
So do what you must, do all you can,
CC DD E EE
Break all the ***ing rules and
C CC C C C C C
Go to Hell with Superman and
B BB BBBBB
Die like a champion, yeah hey!
Rhy. fig. 1 (x3)
E C G D E. (4th time)
 
The rest are coming soon

Visit www.directTABS.com for more free tablature!


Add comment: