All tabs: 1331485
We love you! Do you like us?
Bands » Adicts » Viva La Revolution » Bass tab

Viva La Revolution by Adicts bass tab

This is the final page that leads you directly to the Guitar Pro tab, drum tab, bass guitar tab, piano chord, etc you've chosen. This page provides information concerning Viva La Revolution bass tab such as its format, type of tab or chord, upload date, number of views, number of downloads and rating of this tab provided by thetabsbest.com users.

If the tab you have selected is a downloadable one (mostly these are Adicts Guitar Pro tabs), you need to insert so called "captcha" code and click "download" button. In case the code is correct you will be redirected to download page where your Viva La Revolution gp4 file will be prepared. If you have entered wrong "captcha" code, you will be asked to insert it once again to get your Viva La Revolution bass tab.

If you browse all Adicts tabs or open the list of tabs and chords for Viva La Revolution, you can see there are not only Guitar Pro tabs. Guitar tabs and chords, piano & power tabs, drum tabs, bass tabs - they all can be not only in Guitar Pro file format, but also in txt. In this case no special program is needed to read the tab. All you need to do it to open such Viva La Revolution tab and you will see it displayed. If you wish, you can download our free tabs in txt.

thetabsbest.com tries to expand tabs database, adding new and hot songs as well as old and beloved melodies, so our archive could suit any person. Also we try to add chords and files for different music instruments, for example, you can find Adicts acoustic guitar tabs, piano chords or power tabs. Many songs like Viva La Revolution have not only Viva La Revolution bass tab type, but provide wide selection of chords and tabs for all instruments. We also try to add more Adicts Guitar Pro tabs as they can bear data for whole band including sheet music.

Our newest addition - Adicts lyrics - is viewed the same. Select "lyrics" in the list of the tabs and chords and the text will be displayed on the next page.

File info:


Share it:

Rate it:
Rating: 0
Band nameAdicts »
Song nameViva La Revolution »
Tab typeBass tab »
Added04/30/2008
Size2.8 Kb
File formattxt
Views/Loads1/0

Sponsored links:
Wrong code.

Text of tab

   
Intro  
G|---------------------------------------------------------------------------|  
D|-------------------------2-44444--------------2-44444----------------------|  
A|-----------------4444444--------2--34--4444444--------2--34----------------|  
E|-55555555555555------------------------------------------------------------|  
 
Verso  
G|---------------------------------------------------------------------------|  
D|---------2-44444444-2---2---4-4-4------------------------------------------|  
A|-4444444--------------------------2234-------------------------------------|  
E|---------------------------------------------------------------------------|  
 
Refrão  
G|---------------------------------------------------------------------------|  
D|---------2-444444----------------------------------------------------------|  
A|-4444444---------2--34-----------------------------------------------------|  
E|---------------------------------------------------------------------------|  
 
Continuação do Refrão 
 
G|---------------------------------------------------------------------------|  
D|---------------4--4--4-----------------------------------------------------|  
A|--4---------------------2--34----------------------------------------------|  
E|---------------------------------------------------------------------------|  
\"Viva la revolution!\"  
 
Ponte: 
G|---------------------------------------------------------------------------|  
D|-------2-44444444-22222222-44444444-22222222-44444444-22222222-44444444----|  
A|4444444----------------------------------------------------------------2234|  
E|---------------------------------------------------------------------------|"
var fontTamanho = '12px'

function alteraFonte()
{
fontTamanho = (fontTamanho == '12px' ? '16px' : '12px'); 
document.getElementById("spCifra").style.font = fontTamanho
}
function montaEscala(pAcorde){
	window.open('escalas.html?acorde=' + pAcorde,'escala', 'width=650, height=150, toolbars=no, statusbar=no, location=no')
}





.smalltext{font-size: 8pt}
.nota {font-size: 7pt; color:black; background-color:white}
.border {border: 1px solid #3F6A82}
sda {font-family: arial; font-size: 10pt; color: blue}
.b {font-family: arial; font-size: 10pt}
.db {color: darkblue; font-weight:bold; cursor:hand}
pre {font-family:;font-size:10pt;} 



   
     
    
      
  




  
  Adicts 
  Viva La Revolution
  










 








 




   
    
         
            
            
            Print 
		  
            
            Send toe-amail


           
		   
		  
            Add toSongbook 

			
           
            
Tab added by Rafael Ferreira 
help us with 57 music(s)



          more Adicts, Viva La Revolution tabs at GoogleTabs
        
		

	
		Songbook


Add comment: